ISO-10303-21;
HEADER;
FILE_DESCRIPTION (( 'STEP AP203' ),
    '1' );
FILE_NAME ('200697.step',
    '2021-12-01T14:03:34',
    ( '' ),
    ( '' ),
    'SwSTEP 2.0',
    'SolidWorks 2019',
    '' );
FILE_SCHEMA (( 'CONFIG_CONTROL_DESIGN' ));
ENDSEC;

DATA;
#1 = CARTESIAN_POINT ( 'NONE',  ( 7.984611480323002648E-14, -2.800624704198683849E-15, 22.86883619137034174 ) ) ;
#2 = APPLICATION_CONTEXT ( 'configuration controlled 3d designs of mechanical parts and assemblies' ) ;
#3 = ORIENTED_EDGE ( 'NONE', *, *, #175, .T. ) ;
#4 = LOCAL_TIME ( 15, 3, 34.00000000000000000, #111 ) ;
#5 = LOCAL_TIME ( 15, 3, 34.00000000000000000, #296 ) ;
#6 = DIRECTION ( 'NONE',  ( -3.491481338843133355E-15, 1.224646799147353207E-16, -1.000000000000000000 ) ) ;
#7 = FACE_OUTER_BOUND ( 'NONE', #283, .T. ) ;
#8 = COORDINATED_UNIVERSAL_TIME_OFFSET ( 1, 0, .AHEAD. ) ;
#9 = ORIENTED_EDGE ( 'NONE', *, *, #175, .F. ) ;
#10 = CLOSED_SHELL ( 'NONE', ( #70, #78, #173, #230 ) ) ;
#11 = ORIENTED_EDGE ( 'NONE', *, *, #124, .F. ) ;
#12 = PERSON_AND_ORGANIZATION ( #168, #98 ) ;
#13 = CYLINDRICAL_SURFACE ( 'NONE', #107, 1.024999999999999245 ) ;
#14 = EDGE_CURVE ( 'NONE', #115, #115, #297, .T. ) ;
#15 = CARTESIAN_POINT ( 'NONE',  ( 3.491481338843133355E-14, -1.224646799147353256E-15, 10.00000000000000000 ) ) ;
#16 = AXIS2_PLACEMENT_3D ( 'NONE', #181, #186, #53 ) ;
#17 = FACE_OUTER_BOUND ( 'NONE', #187, .T. ) ;
#18 = EDGE_CURVE ( 'NONE', #303, #303, #157, .T. ) ;
#19 = DIRECTION ( 'NONE',  ( -3.491481338843133355E-15, 1.224646799147353207E-16, -1.000000000000000000 ) ) ;
#20 = PERSON_AND_ORGANIZATION_ROLE ( 'classification_officer' ) ;
#21 = CONICAL_SURFACE ( 'NONE', #220, 1.174999999999998712, 0.5235987755982924874 ) ;
#22 = ADVANCED_FACE ( 'NONE', ( #149, #216 ), #127, .T. ) ;
#23 = DIRECTION ( 'NONE',  ( 4.275831445896958607E-31, 1.000000000000000000, 1.224646799147353207E-16 ) ) ;
#24 = APPROVAL_DATE_TIME ( #44, #100 ) ;
#25 = CARTESIAN_POINT ( 'NONE',  ( 1.735266225405037467E-13, -6.086494591762345225E-15, 49.70000000000000284 ) ) ;
#26 = AXIS2_PLACEMENT_3D ( 'NONE', #135, #227, #23 ) ;
#27 = DIRECTION ( 'NONE',  ( 0.0000000000000000000, 1.000000000000000000, 0.0000000000000000000 ) ) ;
#28 = PLANE ( 'NONE',  #192 ) ;
#29 = PLANE ( 'NONE',  #271 ) ;
#30 = EDGE_LOOP ( 'NONE', ( #235 ) ) ;
#31 = VERTEX_POINT ( 'NONE', #118 ) ;
#32 = CIRCLE ( 'NONE', #300, 1.499999999999996669 ) ;
#33 = DIRECTION ( 'NONE',  ( 0.0000000000000000000, 1.000000000000000000, 0.0000000000000000000 ) ) ;
#34 = ORIENTED_EDGE ( 'NONE', *, *, #262, .F. ) ;
#35 = DATE_AND_TIME ( #286, #45 ) ;
#36 = EDGE_LOOP ( 'NONE', ( #34 ) ) ;
#37 = PRODUCT ( '200697', '200697', '', ( #49 ) ) ;
#38 = DIRECTION ( 'NONE',  ( -3.491481338843133355E-15, 1.224646799147353207E-16, -1.000000000000000000 ) ) ;
#39 = DIRECTION ( 'NONE',  ( 0.0000000000000000000, 1.000000000000000000, 0.0000000000000000000 ) ) ;
#40 = ADVANCED_FACE ( 'NONE', ( #290, #242 ), #13, .T. ) ;
#41 = CARTESIAN_POINT ( 'NONE',  ( 6.982962677686266711E-14, -2.449293598294706513E-15, 20.00000000000000000 ) ) ;
#42 = CC_DESIGN_APPROVAL ( #66, ( #60 ) ) ;
#43 = EDGE_CURVE ( 'NONE', #234, #234, #32, .T. ) ;
#44 = DATE_AND_TIME ( #273, #4 ) ;
#45 = LOCAL_TIME ( 15, 3, 34.00000000000000000, #82 ) ;
#46 = PRODUCT_RELATED_PRODUCT_CATEGORY ( 'detail', '', ( #37 ) ) ;
#47 = DIRECTION ( 'NONE',  ( 0.0000000000000000000, 1.000000000000000000, 0.0000000000000000000 ) ) ;
#48 = FACE_OUTER_BOUND ( 'NONE', #185, .T. ) ;
#49 = MECHANICAL_CONTEXT ( 'NONE', #2, 'mechanical' ) ;
#50 = PLANE ( 'NONE',  #88 ) ;
#51 = ORIENTED_EDGE ( 'NONE', *, *, #18, .T. ) ;
#52 = APPROVAL_ROLE ( '' ) ;
#53 = DIRECTION ( 'NONE',  ( 4.275831445896958607E-31, 1.000000000000000000, 1.224646799147353207E-16 ) ) ;
#54 = ORIENTED_EDGE ( 'NONE', *, *, #119, .T. ) ;
#55 = VERTEX_POINT ( 'NONE', #189 ) ;
#56 = ORIENTED_EDGE ( 'NONE', *, *, #204, .T. ) ;
#57 = CIRCLE ( 'NONE', #150, 1.500000000000001554 ) ;
#58 = DIRECTION ( 'NONE',  ( 4.275831445896958607E-31, 1.000000000000000000, 1.224646799147353454E-16 ) ) ;
#59 = CARTESIAN_POINT ( 'NONE',  ( 0.0000000000000000000, 0.0000000000000000000, 0.0000000000000000000 ) ) ;
#60 = PRODUCT_DEFINITION ( 'UNKNOWN', '', #133, #208 ) ;
#61 = AXIS2_PLACEMENT_3D ( 'NONE', #244, #193, #269 ) ;
#62 = FACE_OUTER_BOUND ( 'NONE', #255, .T. ) ;
#63 = DIRECTION ( 'NONE',  ( -3.491481338843133355E-15, 1.224646799147353207E-16, -1.000000000000000000 ) ) ;
#64 = DIRECTION ( 'NONE',  ( -3.491481338843133355E-15, 1.224646799147353207E-16, -1.000000000000000000 ) ) ;
#65 =( GEOMETRIC_REPRESENTATION_CONTEXT ( 3 ) GLOBAL_UNCERTAINTY_ASSIGNED_CONTEXT ( ( #282 ) ) GLOBAL_UNIT_ASSIGNED_CONTEXT ( ( #183, #93, #207 ) ) REPRESENTATION_CONTEXT ( 'NONE', 'WORKASPACE' ) );
#66 = APPROVAL ( #279, 'UNSPECIFIED' ) ;
#67 = AXIS2_PLACEMENT_3D ( 'NONE', #83, #196, #81 ) ;
#68 = VERTEX_POINT ( 'NONE', #205 ) ;
#69 = CARTESIAN_POINT ( 'NONE',  ( 1.745740669421566678E-13, 8.998558695971067645E-33, 50.00000000000000000 ) ) ;
#70 = ADVANCED_FACE ( 'NONE', ( #268 ), #293, .F. ) ;
#71 = DIRECTION ( 'NONE',  ( -3.491481338843133355E-15, 1.224646799147353207E-16, -1.000000000000000000 ) ) ;
#72 = CC_DESIGN_SECURITY_CLASSIFICATION ( #172, ( #133 ) ) ;
#73 = AXIS2_PLACEMENT_3D ( 'NONE', #86, #64, #87 ) ;
#74 = ORIENTED_EDGE ( 'NONE', *, *, #14, .F. ) ;
#75 = CARTESIAN_POINT ( 'NONE',  ( 7.984611480323002648E-14, 1.499999999999994005, 22.86883619137034174 ) ) ;
#76 = PERSON_AND_ORGANIZATION ( #168, #98 ) ;
#77 = DIRECTION ( 'NONE',  ( -3.491481338843133355E-15, 1.224646799147353207E-16, -1.000000000000000000 ) ) ;
#78 = ADVANCED_FACE ( 'NONE', ( #291, #62 ), #21, .T. ) ;
#79 = EDGE_LOOP ( 'NONE', ( #147 ) ) ;
#80 = APPROVAL_PERSON_ORGANIZATION ( #274, #100, #109 ) ;
#81 = DIRECTION ( 'NONE',  ( -4.275831445896958607E-31, -1.000000000000000000, -1.224646799147353207E-16 ) ) ;
#82 = COORDINATED_UNIVERSAL_TIME_OFFSET ( 1, 0, .AHEAD. ) ;
#83 = CARTESIAN_POINT ( 'NONE',  ( -4.096205246310367431E-31, 1.436755393115382085E-32, -1.173199810848080445E-16 ) ) ;
#84 = APPROVAL_PERSON_ORGANIZATION ( #12, #155, #122 ) ;
#85 = DIRECTION ( 'NONE',  ( -3.491481338843133355E-15, 1.224646799147353207E-16, -1.000000000000000000 ) ) ;
#86 = CARTESIAN_POINT ( 'NONE',  ( 1.745740669421566678E-13, -6.123233995736766085E-15, 50.00000000000000000 ) ) ;
#87 = DIRECTION ( 'NONE',  ( 0.0000000000000000000, 1.000000000000000000, 0.0000000000000000000 ) ) ;
#88 = AXIS2_PLACEMENT_3D ( 'NONE', #275, #137, #254 ) ;
#89 = SECURITY_CLASSIFICATION_LEVEL ( 'unclassified' ) ;
#90 = CYLINDRICAL_SURFACE ( 'NONE', #26, 1.174999999999999378 ) ;
#91 = CIRCLE ( 'NONE', #292, 1.200000000000001732 ) ;
#92 = FACE_BOUND ( 'NONE', #163, .T. ) ;
#93 =( NAMED_UNIT ( * ) PLANE_ANGLE_UNIT ( ) SI_UNIT ( $, .RADIAN. ) );
#94 = DIRECTION ( 'NONE',  ( 1.000000000000000000, 0.0000000000000000000, 0.0000000000000000000 ) ) ;
#95 = FACE_OUTER_BOUND ( 'NONE', #102, .T. ) ;
#96 = PERSON_AND_ORGANIZATION ( #168, #98 ) ;
#97 = VERTEX_POINT ( 'NONE', #101 ) ;
#98 = ORGANIZATION ( 'UNSPECIFIED', 'UNSPECIFIED', '' ) ;
#99 = APPLICATION_PROTOCOL_DEFINITION ( 'international standard', 'config_control_design', 1994, #261 ) ;
#100 = APPROVAL ( #136, 'UNSPECIFIED' ) ;
#101 = CARTESIAN_POINT ( 'NONE',  ( 3.582192684931459116E-14, 1.024999999999997469, 10.25980762113533729 ) ) ;
#102 = EDGE_LOOP ( 'NONE', ( #51 ) ) ;
#103 = EDGE_LOOP ( 'NONE', ( #253 ) ) ;
#104 = CARTESIAN_POINT ( 'NONE',  ( 7.984611480323002648E-14, -2.800624704198683849E-15, 22.86883619137034174 ) ) ;
#105 = DIRECTION ( 'NONE',  ( 4.275831445896958607E-31, 1.000000000000000000, 1.224646799147353207E-16 ) ) ;
#106 = CIRCLE ( 'NONE', #210, 1.024999999999998801 ) ;
#107 = AXIS2_PLACEMENT_3D ( 'NONE', #59, #38, #105 ) ;
#108 = EDGE_CURVE ( 'NONE', #116, #116, #224, .T. ) ;
#109 = APPROVAL_ROLE ( '' ) ;
#110 = CARTESIAN_POINT ( 'NONE',  ( 3.582192684931459116E-14, -1.256464056309101033E-15, 10.25980762113533729 ) ) ;
#111 = COORDINATED_UNIVERSAL_TIME_OFFSET ( 1, 0, .AHEAD. ) ;
#112 = DIRECTION ( 'NONE',  ( 4.275831445896958607E-31, 1.000000000000000000, 1.224646799147353207E-16 ) ) ;
#113 = AXIS2_PLACEMENT_3D ( 'NONE', #15, #19, #39 ) ;
#114 = CARTESIAN_POINT ( 'NONE',  ( 3.582192684931459116E-14, -1.256464056309101033E-15, 10.25980762113533729 ) ) ;
#115 = VERTEX_POINT ( 'NONE', #281 ) ;
#116 = VERTEX_POINT ( 'NONE', #237 ) ;
#117 = ORIENTED_EDGE ( 'NONE', *, *, #262, .T. ) ;
#118 = CARTESIAN_POINT ( 'NONE',  ( 6.982962677686266711E-14, 1.024999999999997247, 20.00000000000000000 ) ) ;
#119 = EDGE_CURVE ( 'NONE', #31, #31, #178, .T. ) ;
#120 = ORIENTED_EDGE ( 'NONE', *, *, #43, .F. ) ;
#121 = CARTESIAN_POINT ( 'NONE',  ( 3.491481338843133355E-14, -1.224646799147353256E-15, 10.00000000000000000 ) ) ;
#122 = APPROVAL_ROLE ( '' ) ;
#123 = CARTESIAN_POINT ( 'NONE',  ( 7.104220552055901835E-14, -2.491825135286219831E-15, 20.34729635533384595 ) ) ;
#124 = EDGE_CURVE ( 'NONE', #250, #250, #238, .T. ) ;
#125 = CALENDAR_DATE ( 2021, 1, 12 ) ;
#126 = CLOSED_SHELL ( 'NONE', ( #295, #182, #40, #247, #195, #22, #141, #225 ) ) ;
#127 = CYLINDRICAL_SURFACE ( 'NONE', #61, 1.499999999999999112 ) ;
#128 = DATE_AND_TIME ( #125, #160 ) ;
#129 = DIRECTION ( 'NONE',  ( -3.491481338843133355E-15, 1.224646799147353207E-16, -1.000000000000000000 ) ) ;
#130 = PERSON_AND_ORGANIZATION ( #168, #98 ) ;
#131 = AXIS2_PLACEMENT_3D ( 'NONE', #121, #77, #47 ) ;
#132 = CC_DESIGN_PERSON_AND_ORGANIZATION_ASSIGNMENT ( #272, #156, ( #133 ) ) ;
#133 = PRODUCT_DEFINITION_FORMATION_WITH_SPECIFIED_SOURCE ( 'ANY', '', #37, .NOT_KNOWN. ) ;
#134 = DATE_AND_TIME ( #151, #5 ) ;
#135 = CARTESIAN_POINT ( 'NONE',  ( 0.0000000000000000000, 0.0000000000000000000, 0.0000000000000000000 ) ) ;
#136 = APPROVAL_STATUS ( 'not_yet_approved' ) ;
#137 = DIRECTION ( 'NONE',  ( 3.491481338843133355E-15, -1.224646799147353207E-16, 1.000000000000000000 ) ) ;
#138 = DIRECTION ( 'NONE',  ( -3.491481338843133355E-15, 1.224646799147353207E-16, -1.000000000000000000 ) ) ;
#139 = CC_DESIGN_APPROVAL ( #100, ( #133 ) ) ;
#140 = ORIENTED_EDGE ( 'NONE', *, *, #284, .T. ) ;
#141 = ADVANCED_FACE ( 'NONE', ( #17, #294 ), #176, .T. ) ;
#142 = FACE_OUTER_BOUND ( 'NONE', #30, .T. ) ;
#143 = ORIENTED_EDGE ( 'NONE', *, *, #108, .F. ) ;
#144 = CARTESIAN_POINT ( 'NONE',  ( 3.491481338843133355E-14, 8.811088723138397025E-33, 10.00000000000000000 ) ) ;
#145 = TOROIDAL_SURFACE ( 'NONE', #16, 3.024999999999999911, 2.000000000000000000 ) ;
#146 = EDGE_LOOP ( 'NONE', ( #56 ) ) ;
#147 = ORIENTED_EDGE ( 'NONE', *, *, #14, .T. ) ;
#148 = ORIENTED_EDGE ( 'NONE', *, *, #108, .T. ) ;
#149 = FACE_OUTER_BOUND ( 'NONE', #191, .T. ) ;
#150 = AXIS2_PLACEMENT_3D ( 'NONE', #25, #6, #33 ) ;
#151 = CALENDAR_DATE ( 2021, 1, 12 ) ;
#152 = DIRECTION ( 'NONE',  ( 3.491481338843133355E-15, -1.224646799147353207E-16, 1.000000000000000000 ) ) ;
#153 = CC_DESIGN_PERSON_AND_ORGANIZATION_ASSIGNMENT ( #246, #20, ( #172 ) ) ;
#154 = DIRECTION ( 'NONE',  ( 0.0000000000000000000, 1.000000000000000000, 0.0000000000000000000 ) ) ;
#155 = APPROVAL ( #194, 'UNSPECIFIED' ) ;
#156 = PERSON_AND_ORGANIZATION_ROLE ( 'creator' ) ;
#157 = CIRCLE ( 'NONE', #162, 1.055384493975581428 ) ;
#158 = DIRECTION ( 'NONE',  ( 0.0000000000000000000, -1.000000000000000000, 0.0000000000000000000 ) ) ;
#159 = FACE_BOUND ( 'NONE', #240, .T. ) ;
#160 = LOCAL_TIME ( 15, 3, 34.00000000000000000, #8 ) ;
#161 = FACE_OUTER_BOUND ( 'NONE', #241, .T. ) ;
#162 = AXIS2_PLACEMENT_3D ( 'NONE', #123, #171, #174 ) ;
#163 = EDGE_LOOP ( 'NONE', ( #3 ) ) ;
#164 = DIRECTION ( 'NONE',  ( -4.275831445896958607E-31, -1.000000000000000000, -1.224646799147353207E-16 ) ) ;
#165 = ORIENTED_EDGE ( 'NONE', *, *, #124, .T. ) ;
#166 = CARTESIAN_POINT ( 'NONE',  ( 3.491481338843133355E-14, 1.174999999999998712, 10.00000000000000000 ) ) ;
#167 = EDGE_LOOP ( 'NONE', ( #9 ) ) ;
#168 = PERSON ( 'UNSPECIFIED', 'UNSPECIFIED', 'UNSPECIFIED', ('UNSPECIFIED'), ('UNSPECIFIED'), ('UNSPECIFIED') ) ;
#169 = EDGE_LOOP ( 'NONE', ( #54 ) ) ;
#170 = DIRECTION ( 'NONE',  ( -4.917267943116352300E-31, -1.000000000000000000, -1.384087879768730596E-16 ) ) ;
#171 = DIRECTION ( 'NONE',  ( -3.491481338843133355E-15, 1.224646799147353207E-16, -1.000000000000000000 ) ) ;
#172 = SECURITY_CLASSIFICATION ( '', '', #89 ) ;
#173 = ADVANCED_FACE ( 'NONE', ( #48, #299 ), #90, .T. ) ;
#174 = DIRECTION ( 'NONE',  ( 0.0000000000000000000, 1.000000000000000000, 0.0000000000000000000 ) ) ;
#175 = EDGE_CURVE ( 'NONE', #97, #97, #106, .T. ) ;
#176 = CONICAL_SURFACE ( 'NONE', #73, 1.200000000000001732, 0.7853981633974453924 ) ;
#177 = CC_DESIGN_PERSON_AND_ORGANIZATION_ASSIGNMENT ( #200, #223, ( #133 ) ) ;
#178 = CIRCLE ( 'NONE', #245, 1.024999999999999689 ) ;
#179 = DIRECTION ( 'NONE',  ( 0.0000000000000000000, 1.000000000000000000, 0.0000000000000000000 ) ) ;
#180 = DIRECTION ( 'NONE',  ( -3.491481338843133355E-15, 1.224646799147353207E-16, -1.000000000000000000 ) ) ;
#181 = CARTESIAN_POINT ( 'NONE',  ( 6.982962677686266711E-14, -2.602085213965210642E-15, 20.00000000000000000 ) ) ;
#182 = ADVANCED_FACE ( 'NONE', ( #301, #92 ), #214, .T. ) ;
#183 =( LENGTH_UNIT ( ) NAMED_UNIT ( * ) SI_UNIT ( .MILLI., .METRE. ) );
#184 = AXIS2_PLACEMENT_3D ( 'NONE', #243, #85, #264 ) ;
#185 = EDGE_LOOP ( 'NONE', ( #143 ) ) ;
#186 = DIRECTION ( 'NONE',  ( -3.491481338843133355E-15, 1.224646799147353207E-16, -1.000000000000000000 ) ) ;
#187 = EDGE_LOOP ( 'NONE', ( #233 ) ) ;
#188 = COORDINATED_UNIVERSAL_TIME_OFFSET ( 1, 0, .AHEAD. ) ;
#189 = CARTESIAN_POINT ( 'NONE',  ( 1.745740669421566678E-13, 1.199999999999995515, 50.00000000000000000 ) ) ;
#190 = DATE_TIME_ROLE ( 'classification_date' ) ;
#191 = EDGE_LOOP ( 'NONE', ( #120 ) ) ;
#192 = AXIS2_PLACEMENT_3D ( 'NONE', #144, #248, #164 ) ;
#193 = DIRECTION ( 'NONE',  ( -3.491481338843133355E-15, 1.224646799147353207E-16, -1.000000000000000000 ) ) ;
#194 = APPROVAL_STATUS ( 'not_yet_approved' ) ;
#195 = ADVANCED_FACE ( 'NONE', ( #159, #209 ), #288, .T. ) ;
#196 = DIRECTION ( 'NONE',  ( 3.491481338843133355E-15, -1.224646799147353207E-16, 1.000000000000000000 ) ) ;
#197 = CARTESIAN_POINT ( 'NONE',  ( 8.728703347107829444E-16, -3.061616997868381785E-17, 0.2499999999999998890 ) ) ;
#198 = PRODUCT_DEFINITION_SHAPE ( 'NONE', 'NONE',  #60 ) ;
#199 = AXIS2_PLACEMENT_3D ( 'NONE', #260, #211, #58 ) ;
#200 = PERSON_AND_ORGANIZATION ( #168, #98 ) ;
#201 = CC_DESIGN_DATE_AND_TIME_ASSIGNMENT ( #134, #298, ( #60 ) ) ;
#202 = AXIS2_PLACEMENT_3D ( 'NONE', #1, #302, #158 ) ;
#203 = DIRECTION ( 'NONE',  ( -3.491481338843133355E-15, 1.224646799147353207E-16, -1.000000000000000000 ) ) ;
#204 = EDGE_CURVE ( 'NONE', #257, #257, #57, .T. ) ;
#205 = CARTESIAN_POINT ( 'NONE',  ( 3.491481338843133355E-14, 1.174999999999998712, 10.00000000000000000 ) ) ;
#206 = PERSON_AND_ORGANIZATION_ROLE ( 'design_owner' ) ;
#207 =( NAMED_UNIT ( * ) SI_UNIT ( $, .STERADIAN. ) SOLID_ANGLE_UNIT ( ) );
#208 = DESIGN_CONTEXT ( 'detailed design', #261, 'design' ) ;
#209 = FACE_OUTER_BOUND ( 'NONE', #289, .T. ) ;
#210 = AXIS2_PLACEMENT_3D ( 'NONE', #110, #138, #27 ) ;
#211 = DIRECTION ( 'NONE',  ( -3.491481338843133355E-15, 1.224646799147353207E-16, -1.000000000000000000 ) ) ;
#212 = ADVANCED_BREP_SHAPE_REPRESENTATION ( '200697', ( #222, #226, #231 ), #65 ) ;
#213 = CARTESIAN_POINT ( 'NONE',  ( 7.104220552055901835E-14, 1.055384493975579208, 20.34729635533384595 ) ) ;
#214 = CONICAL_SURFACE ( 'NONE', #280, 1.024999999999998801, 0.5235987755982940417 ) ;
#215 = ORIENTED_EDGE ( 'NONE', *, *, #43, .T. ) ;
#216 = FACE_OUTER_BOUND ( 'NONE', #146, .T. ) ;
#217 = SHAPE_DEFINITION_REPRESENTATION ( #198, #212 ) ;
#218 = DIRECTION ( 'NONE',  ( 0.0000000000000000000, 1.000000000000000000, 0.0000000000000000000 ) ) ;
#219 = PERSON_AND_ORGANIZATION_ROLE ( 'creator' ) ;
#220 = AXIS2_PLACEMENT_3D ( 'NONE', #197, #152, #170 ) ;
#221 = DATE_AND_TIME ( #249, #251 ) ;
#222 = MANIFOLD_SOLID_BREP ( 'Corps-Déplacer/Copier1[1]', #126 ) ;
#223 = PERSON_AND_ORGANIZATION_ROLE ( 'design_supplier' ) ;
#224 = CIRCLE ( 'NONE', #184, 1.174999999999998712 ) ;
#225 = ADVANCED_FACE ( 'NONE', ( #228 ), #29, .F. ) ;
#226 = MANIFOLD_SOLID_BREP ( 'Corps-Déplacer/Copier1[2]', #10 ) ;
#227 = DIRECTION ( 'NONE',  ( -3.491481338843133355E-15, 1.224646799147353207E-16, -1.000000000000000000 ) ) ;
#228 = FACE_OUTER_BOUND ( 'NONE', #36, .T. ) ;
#229 = CARTESIAN_POINT ( 'NONE',  ( 0.0000000000000000000, 0.0000000000000000000, 0.0000000000000000000 ) ) ;
#230 = ADVANCED_FACE ( 'NONE', ( #7 ), #28, .T. ) ;
#231 = AXIS2_PLACEMENT_3D ( 'NONE', #229, #232, #94 ) ;
#232 = DIRECTION ( 'NONE',  ( 0.0000000000000000000, 0.0000000000000000000, 1.000000000000000000 ) ) ;
#233 = ORIENTED_EDGE ( 'NONE', *, *, #204, .F. ) ;
#234 = VERTEX_POINT ( 'NONE', #75 ) ;
#235 = ORIENTED_EDGE ( 'NONE', *, *, #119, .F. ) ;
#236 = CC_DESIGN_APPROVAL ( #155, ( #172 ) ) ;
#237 = CARTESIAN_POINT ( 'NONE',  ( 8.728703347107835360E-16, 1.174999999999998712, 0.2500000000000000555 ) ) ;
#238 = CIRCLE ( 'NONE', #113, 1.175000000000000044 ) ;
#239 = CC_DESIGN_DATE_AND_TIME_ASSIGNMENT ( #35, #190, ( #172 ) ) ;
#240 = EDGE_LOOP ( 'NONE', ( #278 ) ) ;
#241 = EDGE_LOOP ( 'NONE', ( #140 ) ) ;
#242 = FACE_OUTER_BOUND ( 'NONE', #169, .T. ) ;
#243 = CARTESIAN_POINT ( 'NONE',  ( 8.728703347107829444E-16, -3.061616997868381785E-17, 0.2499999999999998890 ) ) ;
#244 = CARTESIAN_POINT ( 'NONE',  ( 0.0000000000000000000, 0.0000000000000000000, 0.0000000000000000000 ) ) ;
#245 = AXIS2_PLACEMENT_3D ( 'NONE', #41, #129, #218 ) ;
#246 = PERSON_AND_ORGANIZATION ( #168, #98 ) ;
#247 = ADVANCED_FACE ( 'NONE', ( #142, #95 ), #145, .F. ) ;
#248 = DIRECTION ( 'NONE',  ( 3.491481338843133355E-15, -1.224646799147353207E-16, 1.000000000000000000 ) ) ;
#249 = CALENDAR_DATE ( 2021, 1, 12 ) ;
#250 = VERTEX_POINT ( 'NONE', #166 ) ;
#251 = LOCAL_TIME ( 15, 3, 34.00000000000000000, #188 ) ;
#252 = CARTESIAN_POINT ( 'NONE',  ( 1.735266225405037467E-13, 1.499999999999995559, 49.70000000000000284 ) ) ;
#253 = ORIENTED_EDGE ( 'NONE', *, *, #284, .F. ) ;
#254 = DIRECTION ( 'NONE',  ( -4.275831445896958607E-31, -1.000000000000000000, -1.224646799147353207E-16 ) ) ;
#255 = EDGE_LOOP ( 'NONE', ( #148 ) ) ;
#256 = CC_DESIGN_PERSON_AND_ORGANIZATION_ASSIGNMENT ( #130, #219, ( #60 ) ) ;
#257 = VERTEX_POINT ( 'NONE', #252 ) ;
#258 = EDGE_LOOP ( 'NONE', ( #117 ) ) ;
#259 = CIRCLE ( 'NONE', #131, 1.175000000000000044 ) ;
#260 = CARTESIAN_POINT ( 'NONE',  ( -8.192410492620734862E-31, 2.873510786230764171E-32, -2.346399621696160889E-16 ) ) ;
#261 = APPLICATION_CONTEXT ( 'configuration controlled 3d designs of mechanical parts and assemblies' ) ;
#262 = EDGE_CURVE ( 'NONE', #55, #55, #91, .T. ) ;
#263 = EDGE_LOOP ( 'NONE', ( #74 ) ) ;
#264 = DIRECTION ( 'NONE',  ( 4.917267943116352300E-31, 1.000000000000000000, 1.384087879768730596E-16 ) ) ;
#265 = APPROVAL_DATE_TIME ( #221, #66 ) ;
#266 = APPROVAL_DATE_TIME ( #128, #155 ) ;
#267 = APPROVAL_PERSON_ORGANIZATION ( #96, #66, #52 ) ;
#268 = FACE_OUTER_BOUND ( 'NONE', #79, .T. ) ;
#269 = DIRECTION ( 'NONE',  ( 4.275831445896958607E-31, 1.000000000000000000, 1.224646799147353454E-16 ) ) ;
#270 = CC_DESIGN_PERSON_AND_ORGANIZATION_ASSIGNMENT ( #76, #206, ( #37 ) ) ;
#271 = AXIS2_PLACEMENT_3D ( 'NONE', #69, #71, #112 ) ;
#272 = PERSON_AND_ORGANIZATION ( #168, #98 ) ;
#273 = CALENDAR_DATE ( 2021, 1, 12 ) ;
#274 = PERSON_AND_ORGANIZATION ( #168, #98 ) ;
#275 = CARTESIAN_POINT ( 'NONE',  ( 3.491481338843133355E-14, 8.811088723138397025E-33, 10.00000000000000000 ) ) ;
#276 = APPLICATION_PROTOCOL_DEFINITION ( 'international standard', 'config_control_design', 1994, #2 ) ;
#277 = DIRECTION ( 'NONE',  ( 0.0000000000000000000, 1.000000000000000000, 0.0000000000000000000 ) ) ;
#278 = ORIENTED_EDGE ( 'NONE', *, *, #18, .F. ) ;
#279 = APPROVAL_STATUS ( 'not_yet_approved' ) ;
#280 = AXIS2_PLACEMENT_3D ( 'NONE', #114, #203, #179 ) ;
#281 = CARTESIAN_POINT ( 'NONE',  ( -3.785471652766323589E-31, 1.030662432702594389, -1.084202172485504434E-16 ) ) ;
#282 = UNCERTAINTY_MEASURE_WITH_UNIT (LENGTH_MEASURE( 1.000000000000000082E-05 ), #183, 'distance_accuracy_value', 'NONE');
#283 = EDGE_LOOP ( 'NONE', ( #11 ) ) ;
#284 = EDGE_CURVE ( 'NONE', #68, #68, #259, .T. ) ;
#285 = CARTESIAN_POINT ( 'NONE',  ( 1.745740669421566678E-13, -6.123233995736766085E-15, 50.00000000000000000 ) ) ;
#286 = CALENDAR_DATE ( 2021, 1, 12 ) ;
#287 = EDGE_LOOP ( 'NONE', ( #165 ) ) ;
#288 = CONICAL_SURFACE ( 'NONE', #202, 1.499999999999996669, 0.1745329251994260367 ) ;
#289 = EDGE_LOOP ( 'NONE', ( #215 ) ) ;
#290 = FACE_OUTER_BOUND ( 'NONE', #167, .T. ) ;
#291 = FACE_BOUND ( 'NONE', #263, .T. ) ;
#292 = AXIS2_PLACEMENT_3D ( 'NONE', #285, #180, #277 ) ;
#293 = PLANE ( 'NONE',  #67 ) ;
#294 = FACE_BOUND ( 'NONE', #258, .T. ) ;
#295 = ADVANCED_FACE ( 'NONE', ( #161 ), #50, .F. ) ;
#296 = COORDINATED_UNIVERSAL_TIME_OFFSET ( 1, 0, .AHEAD. ) ;
#297 = CIRCLE ( 'NONE', #199, 1.030662432702594389 ) ;
#298 = DATE_TIME_ROLE ( 'creation_date' ) ;
#299 = FACE_OUTER_BOUND ( 'NONE', #287, .T. ) ;
#300 = AXIS2_PLACEMENT_3D ( 'NONE', #104, #63, #154 ) ;
#301 = FACE_OUTER_BOUND ( 'NONE', #103, .T. ) ;
#302 = DIRECTION ( 'NONE',  ( 3.491481338843133355E-15, -1.224646799147353207E-16, 1.000000000000000000 ) ) ;
#303 = VERTEX_POINT ( 'NONE', #213 ) ;
ENDSEC;
END-ISO-10303-21;
