ISO-10303-21;
HEADER;
FILE_DESCRIPTION (( 'STEP AP203' ),
    '1' );
FILE_NAME ('200696.step',
    '2021-12-01T14:03:33',
    ( '' ),
    ( '' ),
    'SwSTEP 2.0',
    'SolidWorks 2019',
    '' );
FILE_SCHEMA (( 'CONFIG_CONTROL_DESIGN' ));
ENDSEC;

DATA;
#1 = ADVANCED_FACE ( 'NONE', ( #232, #44 ), #20, .T. ) ;
#2 = AXIS2_PLACEMENT_3D ( 'NONE', #70, #46, #54 ) ;
#3 = APPROVAL_STATUS ( 'not_yet_approved' ) ;
#4 = FACE_OUTER_BOUND ( 'NONE', #254, .T. ) ;
#5 = DATE_TIME_ROLE ( 'creation_date' ) ;
#6 = CARTESIAN_POINT ( 'NONE',  ( 1.735266225405037467E-13, -6.086494591762345225E-15, 49.70000000000000284 ) ) ;
#7 = CARTESIAN_POINT ( 'NONE',  ( 1.745740669421566678E-13, 8.998558695971067645E-33, 50.00000000000000000 ) ) ;
#8 = EDGE_LOOP ( 'NONE', ( #170 ) ) ;
#9 = VERTEX_POINT ( 'NONE', #288 ) ;
#10 = ORIENTED_EDGE ( 'NONE', *, *, #242, .F. ) ;
#11 = PERSON_AND_ORGANIZATION_ROLE ( 'creator' ) ;
#12 = EDGE_LOOP ( 'NONE', ( #10 ) ) ;
#13 = PERSON_AND_ORGANIZATION_ROLE ( 'classification_officer' ) ;
#14 = CIRCLE ( 'NONE', #38, 1.499999999999996669 ) ;
#15 = CYLINDRICAL_SURFACE ( 'NONE', #112, 1.049999999999999822 ) ;
#16 = EDGE_CURVE ( 'NONE', #234, #234, #14, .T. ) ;
#17 = LOCAL_TIME ( 15, 3, 33.00000000000000000, #275 ) ;
#18 = FACE_OUTER_BOUND ( 'NONE', #186, .T. ) ;
#19 = DIRECTION ( 'NONE',  ( -3.491481338843133355E-15, 1.224646799147353207E-16, -1.000000000000000000 ) ) ;
#20 = CYLINDRICAL_SURFACE ( 'NONE', #139, 1.199999999999999289 ) ;
#21 = FACE_OUTER_BOUND ( 'NONE', #290, .T. ) ;
#22 = CONICAL_SURFACE ( 'NONE', #2, 1.049999999999999156, 0.5235987755982928205 ) ;
#23 = FACE_OUTER_BOUND ( 'NONE', #271, .T. ) ;
#24 = AXIS2_PLACEMENT_3D ( 'NONE', #218, #47, #200 ) ;
#25 = ADVANCED_FACE ( 'NONE', ( #197 ), #72, .F. ) ;
#26 = DIRECTION ( 'NONE',  ( 3.491481338843133355E-15, -1.224646799147353207E-16, 1.000000000000000000 ) ) ;
#27 = ORIENTED_EDGE ( 'NONE', *, *, #16, .F. ) ;
#28 = CONICAL_SURFACE ( 'NONE', #259, 1.499999999999996669, 0.1745329251994257591 ) ;
#29 = APPLICATION_PROTOCOL_DEFINITION ( 'international standard', 'config_control_design', 1994, #106 ) ;
#30 =( NAMED_UNIT ( * ) PLANE_ANGLE_UNIT ( ) SI_UNIT ( $, .RADIAN. ) );
#31 = DIRECTION ( 'NONE',  ( -3.491481338843133355E-15, 1.224646799147353207E-16, -1.000000000000000000 ) ) ;
#32 = DIRECTION ( 'NONE',  ( 0.0000000000000000000, 1.000000000000000000, 0.0000000000000000000 ) ) ;
#33 = PERSON_AND_ORGANIZATION ( #178, #110 ) ;
#34 = APPROVAL ( #42, 'UNSPECIFIED' ) ;
#35 = EDGE_LOOP ( 'NONE', ( #127 ) ) ;
#36 = EDGE_LOOP ( 'NONE', ( #64 ) ) ;
#37 = MECHANICAL_CONTEXT ( 'NONE', #175, 'mechanical' ) ;
#38 = AXIS2_PLACEMENT_3D ( 'NONE', #104, #263, #99 ) ;
#39 = ORIENTED_EDGE ( 'NONE', *, *, #147, .T. ) ;
#40 = LOCAL_TIME ( 15, 3, 33.00000000000000000, #221 ) ;
#41 = CC_DESIGN_PERSON_AND_ORGANIZATION_ASSIGNMENT ( #185, #58, ( #211 ) ) ;
#42 = APPROVAL_STATUS ( 'not_yet_approved' ) ;
#43 = DIRECTION ( 'NONE',  ( -3.491481338843133355E-15, 1.224646799147353207E-16, -1.000000000000000000 ) ) ;
#44 = FACE_OUTER_BOUND ( 'NONE', #205, .T. ) ;
#45 = ADVANCED_FACE ( 'NONE', ( #240, #23 ), #28, .T. ) ;
#46 = DIRECTION ( 'NONE',  ( -3.491481338843133355E-15, 1.224646799147353207E-16, -1.000000000000000000 ) ) ;
#47 = DIRECTION ( 'NONE',  ( 3.491481338843133355E-15, -1.224646799147353207E-16, 1.000000000000000000 ) ) ;
#48 = AXIS2_PLACEMENT_3D ( 'NONE', #100, #223, #59 ) ;
#49 = EDGE_CURVE ( 'NONE', #264, #264, #204, .T. ) ;
#50 = DIRECTION ( 'NONE',  ( 0.0000000000000000000, -1.000000000000000000, 0.0000000000000000000 ) ) ;
#51 = AXIS2_PLACEMENT_3D ( 'NONE', #238, #266, #94 ) ;
#52 = DIRECTION ( 'NONE',  ( 0.0000000000000000000, 1.000000000000000000, 0.0000000000000000000 ) ) ;
#53 = AXIS2_PLACEMENT_3D ( 'NONE', #219, #247, #184 ) ;
#54 = DIRECTION ( 'NONE',  ( 0.0000000000000000000, 1.000000000000000000, 0.0000000000000000000 ) ) ;
#55 = VERTEX_POINT ( 'NONE', #165 ) ;
#56 = CARTESIAN_POINT ( 'NONE',  ( 1.745740669421566678E-13, -6.123233995736766085E-15, 50.00000000000000000 ) ) ;
#57 = EDGE_CURVE ( 'NONE', #237, #237, #265, .T. ) ;
#58 = PERSON_AND_ORGANIZATION_ROLE ( 'creator' ) ;
#59 = DIRECTION ( 'NONE',  ( 0.0000000000000000000, 1.000000000000000000, 0.0000000000000000000 ) ) ;
#60 = EDGE_LOOP ( 'NONE', ( #142 ) ) ;
#61 = ORIENTED_EDGE ( 'NONE', *, *, #242, .T. ) ;
#62 = APPROVAL_STATUS ( 'not_yet_approved' ) ;
#63 = APPROVAL ( #62, 'UNSPECIFIED' ) ;
#64 = ORIENTED_EDGE ( 'NONE', *, *, #157, .F. ) ;
#65 = AXIS2_PLACEMENT_3D ( 'NONE', #79, #126, #284 ) ;
#66 = CALENDAR_DATE ( 2021, 1, 12 ) ;
#67 = DATE_TIME_ROLE ( 'classification_date' ) ;
#68 = CC_DESIGN_SECURITY_CLASSIFICATION ( #124, ( #211 ) ) ;
#69 = PRODUCT_RELATED_PRODUCT_CATEGORY ( 'detail', '', ( #136 ) ) ;
#70 = CARTESIAN_POINT ( 'NONE',  ( 3.582192684931459116E-14, -1.256464056309101033E-15, 10.25980762113533729 ) ) ;
#71 = CC_DESIGN_APPROVAL ( #193, ( #211 ) ) ;
#72 = PLANE ( 'NONE',  #24 ) ;
#73 = AXIS2_PLACEMENT_3D ( 'NONE', #56, #250, #32 ) ;
#74 = APPROVAL_ROLE ( '' ) ;
#75 = ADVANCED_FACE ( 'NONE', ( #220 ), #105, .F. ) ;
#76 = CARTESIAN_POINT ( 'NONE',  ( 7.104220552055900573E-14, 1.080384493975580229, 20.34729635533384240 ) ) ;
#77 = CC_DESIGN_DATE_AND_TIME_ASSIGNMENT ( #134, #5, ( #102 ) ) ;
#78 = DATE_AND_TIME ( #109, #289 ) ;
#79 = CARTESIAN_POINT ( 'NONE',  ( 1.745740669421566678E-13, -6.123233995736766085E-15, 50.00000000000000000 ) ) ;
#80 = EDGE_LOOP ( 'NONE', ( #228 ) ) ;
#81 = EDGE_CURVE ( 'NONE', #187, #187, #131, .T. ) ;
#82 = DIRECTION ( 'NONE',  ( 0.0000000000000000000, 0.0000000000000000000, 1.000000000000000000 ) ) ;
#83 = DIRECTION ( 'NONE',  ( -3.491481338843133355E-15, 1.224646799147353207E-16, -1.000000000000000000 ) ) ;
#84 = ORIENTED_EDGE ( 'NONE', *, *, #16, .T. ) ;
#85 = APPROVAL_ROLE ( '' ) ;
#86 = AXIS2_PLACEMENT_3D ( 'NONE', #198, #179, #103 ) ;
#87 = ORIENTED_EDGE ( 'NONE', *, *, #57, .F. ) ;
#88 = EDGE_LOOP ( 'NONE', ( #163 ) ) ;
#89 = PERSON_AND_ORGANIZATION ( #178, #110 ) ;
#90 = ADVANCED_FACE ( 'NONE', ( #280 ), #159, .T. ) ;
#91 = PERSON_AND_ORGANIZATION_ROLE ( 'design_supplier' ) ;
#92 = AXIS2_PLACEMENT_3D ( 'NONE', #6, #144, #297 ) ;
#93 = DIRECTION ( 'NONE',  ( -3.491481338843133355E-15, 1.224646799147353207E-16, -1.000000000000000000 ) ) ;
#94 = DIRECTION ( 'NONE',  ( 0.0000000000000000000, 1.000000000000000000, 0.0000000000000000000 ) ) ;
#95 = CC_DESIGN_APPROVAL ( #63, ( #102 ) ) ;
#96 = CARTESIAN_POINT ( 'NONE',  ( 8.728703347107835360E-16, 1.199999999999998623, 0.2500000000000000555 ) ) ;
#97 = CARTESIAN_POINT ( 'NONE',  ( 3.582192684931459116E-14, -1.256464056309101033E-15, 10.25980762113533729 ) ) ;
#98 = AXIS2_PLACEMENT_3D ( 'NONE', #7, #31, #222 ) ;
#99 = DIRECTION ( 'NONE',  ( 0.0000000000000000000, 1.000000000000000000, 0.0000000000000000000 ) ) ;
#100 = CARTESIAN_POINT ( 'NONE',  ( 3.491481338843133355E-14, -1.224646799147353256E-15, 10.00000000000000000 ) ) ;
#101 = CARTESIAN_POINT ( 'NONE',  ( 7.935108543721709220E-14, -2.783261411380038722E-15, 22.72705414587988670 ) ) ;
#102 = PRODUCT_DEFINITION ( 'UNKNOWN', '', #211, #244 ) ;
#103 = DIRECTION ( 'NONE',  ( -4.814824860968094888E-31, -1.000000000000000000, -1.355252715606882022E-16 ) ) ;
#104 = CARTESIAN_POINT ( 'NONE',  ( 7.935108543721709220E-14, -2.783261411380038722E-15, 22.72705414587988670 ) ) ;
#105 = PLANE ( 'NONE',  #125 ) ;
#106 = APPLICATION_CONTEXT ( 'configuration controlled 3d designs of mechanical parts and assemblies' ) ;
#107 = CARTESIAN_POINT ( 'NONE',  ( 0.0000000000000000000, 0.0000000000000000000, 0.0000000000000000000 ) ) ;
#108 = CC_DESIGN_PERSON_AND_ORGANIZATION_ASSIGNMENT ( #277, #13, ( #124 ) ) ;
#109 = CALENDAR_DATE ( 2021, 1, 12 ) ;
#110 = ORGANIZATION ( 'UNSPECIFIED', 'UNSPECIFIED', '' ) ;
#111 = FACE_OUTER_BOUND ( 'NONE', #36, .T. ) ;
#112 = AXIS2_PLACEMENT_3D ( 'NONE', #301, #201, #206 ) ;
#113 = CARTESIAN_POINT ( 'NONE',  ( 3.491481338843133355E-14, 1.199999999999998623, 10.00000000000000000 ) ) ;
#114 = ORIENTED_EDGE ( 'NONE', *, *, #81, .T. ) ;
#115 = CC_DESIGN_PERSON_AND_ORGANIZATION_ASSIGNMENT ( #229, #11, ( #102 ) ) ;
#116 = PERSON_AND_ORGANIZATION ( #178, #110 ) ;
#117 = ORIENTED_EDGE ( 'NONE', *, *, #180, .T. ) ;
#118 = CALENDAR_DATE ( 2021, 1, 12 ) ;
#119 = MANIFOLD_SOLID_BREP ( 'Corps-Déplacer/Copier1[1]', #294 ) ;
#120 = MANIFOLD_SOLID_BREP ( 'Corps-Déplacer/Copier1[2]', #155 ) ;
#121 = AXIS2_PLACEMENT_3D ( 'NONE', #279, #93, #123 ) ;
#122 = FACE_OUTER_BOUND ( 'NONE', #151, .T. ) ;
#123 = DIRECTION ( 'NONE',  ( 4.275831445896957731E-31, 1.000000000000000000, 1.224646799147352961E-16 ) ) ;
#124 = SECURITY_CLASSIFICATION ( '', '', #148 ) ;
#125 = AXIS2_PLACEMENT_3D ( 'NONE', #194, #26, #303 ) ;
#126 = DIRECTION ( 'NONE',  ( -3.491481338843133355E-15, 1.224646799147353207E-16, -1.000000000000000000 ) ) ;
#127 = ORIENTED_EDGE ( 'NONE', *, *, #157, .T. ) ;
#128 = DIRECTION ( 'NONE',  ( -3.491481338843133355E-15, 1.224646799147353207E-16, -1.000000000000000000 ) ) ;
#129 = CONICAL_SURFACE ( 'NONE', #65, 1.200000000000001732, 0.7853981633974453924 ) ;
#130 = DIRECTION ( 'NONE',  ( -3.491481338843133355E-15, 1.224646799147353207E-16, -1.000000000000000000 ) ) ;
#131 = CIRCLE ( 'NONE', #183, 1.049999999999999156 ) ;
#132 = CC_DESIGN_DATE_AND_TIME_ASSIGNMENT ( #192, #67, ( #124 ) ) ;
#133 = APPLICATION_PROTOCOL_DEFINITION ( 'international standard', 'config_control_design', 1994, #175 ) ;
#134 = DATE_AND_TIME ( #118, #40 ) ;
#135 = DIRECTION ( 'NONE',  ( 0.0000000000000000000, 1.000000000000000000, 0.0000000000000000000 ) ) ;
#136 = PRODUCT ( '200696', '200696', '', ( #37 ) ) ;
#137 = VERTEX_POINT ( 'NONE', #76 ) ;
#138 = EDGE_LOOP ( 'NONE', ( #114 ) ) ;
#139 = AXIS2_PLACEMENT_3D ( 'NONE', #217, #239, #215 ) ;
#140 =( LENGTH_UNIT ( ) NAMED_UNIT ( * ) SI_UNIT ( .MILLI., .METRE. ) );
#141 = CARTESIAN_POINT ( 'NONE',  ( 7.104220552055900573E-14, -2.491825135286219437E-15, 20.34729635533384240 ) ) ;
#142 = ORIENTED_EDGE ( 'NONE', *, *, #81, .F. ) ;
#143 = APPROVAL_DATE_TIME ( #189, #63 ) ;
#144 = DIRECTION ( 'NONE',  ( -3.491481338843133355E-15, 1.224646799147353207E-16, -1.000000000000000000 ) ) ;
#145 = CIRCLE ( 'NONE', #92, 1.500000000000001554 ) ;
#146 = COORDINATED_UNIVERSAL_TIME_OFFSET ( 1, 0, .AHEAD. ) ;
#147 = EDGE_CURVE ( 'NONE', #9, #9, #225, .T. ) ;
#148 = SECURITY_CLASSIFICATION_LEVEL ( 'unclassified' ) ;
#149 =( GEOMETRIC_REPRESENTATION_CONTEXT ( 3 ) GLOBAL_UNCERTAINTY_ASSIGNED_CONTEXT ( ( #154 ) ) GLOBAL_UNIT_ASSIGNED_CONTEXT ( ( #140, #30, #273 ) ) REPRESENTATION_CONTEXT ( 'NONE', 'WORKASPACE' ) );
#150 = FACE_OUTER_BOUND ( 'NONE', #35, .T. ) ;
#151 = EDGE_LOOP ( 'NONE', ( #27 ) ) ;
#152 = CARTESIAN_POINT ( 'NONE',  ( 0.0000000000000000000, 0.0000000000000000000, 0.0000000000000000000 ) ) ;
#153 = CC_DESIGN_APPROVAL ( #34, ( #124 ) ) ;
#154 = UNCERTAINTY_MEASURE_WITH_UNIT (LENGTH_MEASURE( 1.000000000000000082E-05 ), #140, 'distance_accuracy_value', 'NONE');
#155 = CLOSED_SHELL ( 'NONE', ( #25, #283, #1, #90 ) ) ;
#156 = CARTESIAN_POINT ( 'NONE',  ( 8.728703347107829444E-16, -3.061616997868381785E-17, 0.2499999999999998890 ) ) ;
#157 = EDGE_CURVE ( 'NONE', #55, #55, #145, .T. ) ;
#158 = FACE_BOUND ( 'NONE', #257, .T. ) ;
#159 = PLANE ( 'NONE',  #53 ) ;
#160 = VERTEX_POINT ( 'NONE', #161 ) ;
#161 = CARTESIAN_POINT ( 'NONE',  ( 6.982962677686266711E-14, 1.049999999999998046, 20.00000000000000000 ) ) ;
#162 = APPROVAL_DATE_TIME ( #78, #193 ) ;
#163 = ORIENTED_EDGE ( 'NONE', *, *, #298, .T. ) ;
#164 = LOCAL_TIME ( 15, 3, 33.00000000000000000, #146 ) ;
#165 = CARTESIAN_POINT ( 'NONE',  ( 1.735266225405037467E-13, 1.499999999999995559, 49.70000000000000284 ) ) ;
#166 = FACE_OUTER_BOUND ( 'NONE', #274, .T. ) ;
#167 = ORIENTED_EDGE ( 'NONE', *, *, #180, .F. ) ;
#168 = AXIS2_PLACEMENT_3D ( 'NONE', #152, #19, #213 ) ;
#169 = COORDINATED_UNIVERSAL_TIME_OFFSET ( 1, 0, .AHEAD. ) ;
#170 = ORIENTED_EDGE ( 'NONE', *, *, #49, .F. ) ;
#171 = ADVANCED_FACE ( 'NONE', ( #269, #166 ), #241, .F. ) ;
#172 = CYLINDRICAL_SURFACE ( 'NONE', #168, 1.499999999999999112 ) ;
#173 = SHAPE_DEFINITION_REPRESENTATION ( #255, #300 ) ;
#174 = CC_DESIGN_PERSON_AND_ORGANIZATION_ASSIGNMENT ( #33, #91, ( #211 ) ) ;
#175 = APPLICATION_CONTEXT ( 'configuration controlled 3d designs of mechanical parts and assemblies' ) ;
#176 = CIRCLE ( 'NONE', #121, 1.055662432702594078 ) ;
#177 = ADVANCED_FACE ( 'NONE', ( #122, #150 ), #172, .T. ) ;
#178 = PERSON ( 'UNSPECIFIED', 'UNSPECIFIED', 'UNSPECIFIED', ('UNSPECIFIED'), ('UNSPECIFIED'), ('UNSPECIFIED') ) ;
#179 = DIRECTION ( 'NONE',  ( 3.491481338843133355E-15, -1.224646799147353207E-16, 1.000000000000000000 ) ) ;
#180 = EDGE_CURVE ( 'NONE', #224, #224, #176, .T. ) ;
#181 = CIRCLE ( 'NONE', #285, 1.050000000000000266 ) ;
#182 = CARTESIAN_POINT ( 'NONE',  ( 3.582192684931459116E-14, 1.049999999999997824, 10.25980762113533729 ) ) ;
#183 = AXIS2_PLACEMENT_3D ( 'NONE', #97, #128, #52 ) ;
#184 = DIRECTION ( 'NONE',  ( -4.275831445896958607E-31, -1.000000000000000000, -1.224646799147353207E-16 ) ) ;
#185 = PERSON_AND_ORGANIZATION ( #178, #110 ) ;
#186 = EDGE_LOOP ( 'NONE', ( #267 ) ) ;
#187 = VERTEX_POINT ( 'NONE', #182 ) ;
#188 = EDGE_LOOP ( 'NONE', ( #291 ) ) ;
#189 = DATE_AND_TIME ( #256, #276 ) ;
#190 = EDGE_LOOP ( 'NONE', ( #117 ) ) ;
#191 = CALENDAR_DATE ( 2021, 1, 12 ) ;
#192 = DATE_AND_TIME ( #66, #164 ) ;
#193 = APPROVAL ( #3, 'UNSPECIFIED' ) ;
#194 = CARTESIAN_POINT ( 'NONE',  ( 3.491481338843133355E-14, 8.998558695971127857E-33, 10.00000000000000000 ) ) ;
#195 = ADVANCED_FACE ( 'NONE', ( #278, #260 ), #15, .T. ) ;
#196 = AXIS2_PLACEMENT_3D ( 'NONE', #156, #243, #214 ) ;
#197 = FACE_OUTER_BOUND ( 'NONE', #190, .T. ) ;
#198 = CARTESIAN_POINT ( 'NONE',  ( 8.728703347107829444E-16, -3.061616997868381785E-17, 0.2499999999999998890 ) ) ;
#199 = FACE_BOUND ( 'NONE', #138, .T. ) ;
#200 = DIRECTION ( 'NONE',  ( -4.275831445896958607E-31, -1.000000000000000000, -1.224646799147353207E-16 ) ) ;
#201 = DIRECTION ( 'NONE',  ( -3.491481338843133355E-15, 1.224646799147353207E-16, -1.000000000000000000 ) ) ;
#202 = DIRECTION ( 'NONE',  ( 1.000000000000000000, 0.0000000000000000000, 0.0000000000000000000 ) ) ;
#203 = FACE_BOUND ( 'NONE', #253, .T. ) ;
#204 = CIRCLE ( 'NONE', #196, 1.199999999999998623 ) ;
#205 = EDGE_LOOP ( 'NONE', ( #209 ) ) ;
#206 = DIRECTION ( 'NONE',  ( 4.275831445896958607E-31, 1.000000000000000000, 1.224646799147352961E-16 ) ) ;
#207 = ORIENTED_EDGE ( 'NONE', *, *, #147, .F. ) ;
#208 = PERSON_AND_ORGANIZATION_ROLE ( 'design_owner' ) ;
#209 = ORIENTED_EDGE ( 'NONE', *, *, #57, .T. ) ;
#210 = APPROVAL_PERSON_ORGANIZATION ( #286, #193, #74 ) ;
#211 = PRODUCT_DEFINITION_FORMATION_WITH_SPECIFIED_SOURCE ( 'ANY', '', #136, .NOT_KNOWN. ) ;
#212 = CIRCLE ( 'NONE', #231, 1.080384493975582672 ) ;
#213 = DIRECTION ( 'NONE',  ( 4.275831445896958607E-31, 1.000000000000000000, 1.224646799147353454E-16 ) ) ;
#214 = DIRECTION ( 'NONE',  ( 4.814824860968094888E-31, 1.000000000000000000, 1.355252715606882022E-16 ) ) ;
#215 = DIRECTION ( 'NONE',  ( 4.275831445896958607E-31, 1.000000000000000000, 1.224646799147353207E-16 ) ) ;
#216 = CONICAL_SURFACE ( 'NONE', #86, 1.199999999999998623, 0.5235987755982933756 ) ;
#217 = CARTESIAN_POINT ( 'NONE',  ( 0.0000000000000000000, 0.0000000000000000000, 0.0000000000000000000 ) ) ;
#218 = CARTESIAN_POINT ( 'NONE',  ( -2.256917313000916327E-31, 7.916200303171650993E-33, -6.464068095946699238E-17 ) ) ;
#219 = CARTESIAN_POINT ( 'NONE',  ( 3.491481338843133355E-14, 8.998558695971127857E-33, 10.00000000000000000 ) ) ;
#220 = FACE_OUTER_BOUND ( 'NONE', #88, .T. ) ;
#221 = COORDINATED_UNIVERSAL_TIME_OFFSET ( 1, 0, .AHEAD. ) ;
#222 = DIRECTION ( 'NONE',  ( 4.275831445896958607E-31, 1.000000000000000000, 1.224646799147353207E-16 ) ) ;
#223 = DIRECTION ( 'NONE',  ( -3.491481338843133355E-15, 1.224646799147353207E-16, -1.000000000000000000 ) ) ;
#224 = VERTEX_POINT ( 'NONE', #249 ) ;
#225 = CIRCLE ( 'NONE', #73, 1.200000000000001732 ) ;
#226 = ORIENTED_EDGE ( 'NONE', *, *, #49, .T. ) ;
#227 = PLANE ( 'NONE',  #98 ) ;
#228 = ORIENTED_EDGE ( 'NONE', *, *, #236, .F. ) ;
#229 = PERSON_AND_ORGANIZATION ( #178, #110 ) ;
#230 = CARTESIAN_POINT ( 'NONE',  ( 7.935108543721709220E-14, 1.499999999999994005, 22.72705414587988670 ) ) ;
#231 = AXIS2_PLACEMENT_3D ( 'NONE', #141, #130, #287 ) ;
#232 = FACE_OUTER_BOUND ( 'NONE', #8, .T. ) ;
#233 = APPROVAL_ROLE ( '' ) ;
#234 = VERTEX_POINT ( 'NONE', #230 ) ;
#235 = CARTESIAN_POINT ( 'NONE',  ( 6.982962677686266711E-14, -2.602085213965210642E-15, 20.00000000000000000 ) ) ;
#236 = EDGE_CURVE ( 'NONE', #160, #160, #181, .T. ) ;
#237 = VERTEX_POINT ( 'NONE', #252 ) ;
#238 = CARTESIAN_POINT ( 'NONE',  ( 3.491481338843133355E-14, -1.224646799147353256E-15, 10.00000000000000000 ) ) ;
#239 = DIRECTION ( 'NONE',  ( -3.491481338843133355E-15, 1.224646799147353207E-16, -1.000000000000000000 ) ) ;
#240 = FACE_BOUND ( 'NONE', #12, .T. ) ;
#241 = TOROIDAL_SURFACE ( 'NONE', #302, 3.050000000000000711, 1.999999999999999556 ) ;
#242 = EDGE_CURVE ( 'NONE', #137, #137, #212, .T. ) ;
#243 = DIRECTION ( 'NONE',  ( -3.491481338843133355E-15, 1.224646799147353207E-16, -1.000000000000000000 ) ) ;
#244 = DESIGN_CONTEXT ( 'detailed design', #106, 'design' ) ;
#245 = CIRCLE ( 'NONE', #48, 1.199999999999999956 ) ;
#246 = ADVANCED_FACE ( 'NONE', ( #4 ), #227, .F. ) ;
#247 = DIRECTION ( 'NONE',  ( 3.491481338843133355E-15, -1.224646799147353207E-16, 1.000000000000000000 ) ) ;
#248 = VERTEX_POINT ( 'NONE', #113 ) ;
#249 = CARTESIAN_POINT ( 'NONE',  ( 0.0000000000000000000, 1.055662432702594078, 0.0000000000000000000 ) ) ;
#250 = DIRECTION ( 'NONE',  ( -3.491481338843133355E-15, 1.224646799147353207E-16, -1.000000000000000000 ) ) ;
#251 = COORDINATED_UNIVERSAL_TIME_OFFSET ( 1, 0, .AHEAD. ) ;
#252 = CARTESIAN_POINT ( 'NONE',  ( 3.491481338843133355E-14, 1.199999999999998623, 10.00000000000000000 ) ) ;
#253 = EDGE_LOOP ( 'NONE', ( #39 ) ) ;
#254 = EDGE_LOOP ( 'NONE', ( #207 ) ) ;
#255 = PRODUCT_DEFINITION_SHAPE ( 'NONE', 'NONE',  #102 ) ;
#256 = CALENDAR_DATE ( 2021, 1, 12 ) ;
#257 = EDGE_LOOP ( 'NONE', ( #167 ) ) ;
#258 = APPROVAL_PERSON_ORGANIZATION ( #89, #34, #233 ) ;
#259 = AXIS2_PLACEMENT_3D ( 'NONE', #101, #282, #50 ) ;
#260 = FACE_OUTER_BOUND ( 'NONE', #188, .T. ) ;
#261 = DATE_AND_TIME ( #191, #17 ) ;
#262 = ADVANCED_FACE ( 'NONE', ( #111, #203 ), #129, .T. ) ;
#263 = DIRECTION ( 'NONE',  ( -3.491481338843133355E-15, 1.224646799147353207E-16, -1.000000000000000000 ) ) ;
#264 = VERTEX_POINT ( 'NONE', #96 ) ;
#265 = CIRCLE ( 'NONE', #51, 1.199999999999999956 ) ;
#266 = DIRECTION ( 'NONE',  ( -3.491481338843133355E-15, 1.224646799147353207E-16, -1.000000000000000000 ) ) ;
#267 = ORIENTED_EDGE ( 'NONE', *, *, #298, .F. ) ;
#268 = CC_DESIGN_PERSON_AND_ORGANIZATION_ASSIGNMENT ( #116, #208, ( #136 ) ) ;
#269 = FACE_OUTER_BOUND ( 'NONE', #80, .T. ) ;
#270 = CARTESIAN_POINT ( 'NONE',  ( 6.982962677686266711E-14, -2.449293598294706513E-15, 20.00000000000000000 ) ) ;
#271 = EDGE_LOOP ( 'NONE', ( #84 ) ) ;
#272 = AXIS2_PLACEMENT_3D ( 'NONE', #107, #82, #202 ) ;
#273 =( NAMED_UNIT ( * ) SI_UNIT ( $, .STERADIAN. ) SOLID_ANGLE_UNIT ( ) );
#274 = EDGE_LOOP ( 'NONE', ( #61 ) ) ;
#275 = COORDINATED_UNIVERSAL_TIME_OFFSET ( 1, 0, .AHEAD. ) ;
#276 = LOCAL_TIME ( 15, 3, 33.00000000000000000, #169 ) ;
#277 = PERSON_AND_ORGANIZATION ( #178, #110 ) ;
#278 = FACE_OUTER_BOUND ( 'NONE', #60, .T. ) ;
#279 = CARTESIAN_POINT ( 'NONE',  ( -4.513834626001832655E-31, 1.583240060634330199E-32, -1.292813619189339848E-16 ) ) ;
#280 = FACE_OUTER_BOUND ( 'NONE', #293, .T. ) ;
#281 = DIRECTION ( 'NONE',  ( 4.275831445896958607E-31, 1.000000000000000000, 1.224646799147353207E-16 ) ) ;
#282 = DIRECTION ( 'NONE',  ( 3.491481338843133355E-15, -1.224646799147353207E-16, 1.000000000000000000 ) ) ;
#283 = ADVANCED_FACE ( 'NONE', ( #158, #21 ), #216, .T. ) ;
#284 = DIRECTION ( 'NONE',  ( 0.0000000000000000000, 1.000000000000000000, 0.0000000000000000000 ) ) ;
#285 = AXIS2_PLACEMENT_3D ( 'NONE', #270, #83, #135 ) ;
#286 = PERSON_AND_ORGANIZATION ( #178, #110 ) ;
#287 = DIRECTION ( 'NONE',  ( 0.0000000000000000000, 1.000000000000000000, 0.0000000000000000000 ) ) ;
#288 = CARTESIAN_POINT ( 'NONE',  ( 1.745740669421566678E-13, 1.199999999999995515, 50.00000000000000000 ) ) ;
#289 = LOCAL_TIME ( 15, 3, 33.00000000000000000, #251 ) ;
#290 = EDGE_LOOP ( 'NONE', ( #226 ) ) ;
#291 = ORIENTED_EDGE ( 'NONE', *, *, #236, .T. ) ;
#292 = PERSON_AND_ORGANIZATION ( #178, #110 ) ;
#293 = EDGE_LOOP ( 'NONE', ( #87 ) ) ;
#294 = CLOSED_SHELL ( 'NONE', ( #75, #296, #195, #171, #45, #177, #262, #246 ) ) ;
#295 = APPROVAL_DATE_TIME ( #261, #34 ) ;
#296 = ADVANCED_FACE ( 'NONE', ( #18, #199 ), #22, .T. ) ;
#297 = DIRECTION ( 'NONE',  ( 0.0000000000000000000, 1.000000000000000000, 0.0000000000000000000 ) ) ;
#298 = EDGE_CURVE ( 'NONE', #248, #248, #245, .T. ) ;
#299 = APPROVAL_PERSON_ORGANIZATION ( #292, #63, #85 ) ;
#300 = ADVANCED_BREP_SHAPE_REPRESENTATION ( '200696', ( #119, #120, #272 ), #149 ) ;
#301 = CARTESIAN_POINT ( 'NONE',  ( 0.0000000000000000000, 0.0000000000000000000, 0.0000000000000000000 ) ) ;
#302 = AXIS2_PLACEMENT_3D ( 'NONE', #235, #43, #281 ) ;
#303 = DIRECTION ( 'NONE',  ( -4.275831445896958607E-31, -1.000000000000000000, -1.224646799147353207E-16 ) ) ;
ENDSEC;
END-ISO-10303-21;
