ISO-10303-21;
HEADER;
FILE_DESCRIPTION (( 'STEP AP203' ),
    '1' );
FILE_NAME ('200695.step',
    '2021-12-01T14:03:33',
    ( '' ),
    ( '' ),
    'SwSTEP 2.0',
    'SolidWorks 2019',
    '' );
FILE_SCHEMA (( 'CONFIG_CONTROL_DESIGN' ));
ENDSEC;

DATA;
#1 =( NAMED_UNIT ( * ) SI_UNIT ( $, .STERADIAN. ) SOLID_ANGLE_UNIT ( ) );
#2 = APPROVAL_ROLE ( '' ) ;
#3 = DATE_TIME_ROLE ( 'classification_date' ) ;
#4 = CIRCLE ( 'NONE', #151, 1.499999999999996669 ) ;
#5 = CALENDAR_DATE ( 2021, 1, 12 ) ;
#6 = CC_DESIGN_PERSON_AND_ORGANIZATION_ASSIGNMENT ( #27, #92, ( #49 ) ) ;
#7 = PERSON_AND_ORGANIZATION ( #100, #265 ) ;
#8 = EDGE_CURVE ( 'NONE', #178, #178, #215, .T. ) ;
#9 = CARTESIAN_POINT ( 'NONE',  ( 3.491481338843133355E-14, -1.224646799147353256E-15, 10.00000000000000000 ) ) ;
#10 = CYLINDRICAL_SURFACE ( 'NONE', #113, 1.074999999999999512 ) ;
#11 = CARTESIAN_POINT ( 'NONE',  ( -1.363997292883050391E-31, 4.784258475596943795E-33, -3.906643514626364977E-17 ) ) ;
#12 = FACE_BOUND ( 'NONE', #67, .T. ) ;
#13 = CC_DESIGN_PERSON_AND_ORGANIZATION_ASSIGNMENT ( #183, #230, ( #289 ) ) ;
#14 = PLANE ( 'NONE',  #118 ) ;
#15 = ORIENTED_EDGE ( 'NONE', *, *, #171, .F. ) ;
#16 = DIRECTION ( 'NONE',  ( -3.491481338843133355E-15, 1.224646799147353207E-16, -1.000000000000000000 ) ) ;
#17 = LOCAL_TIME ( 15, 3, 33.00000000000000000, #260 ) ;
#18 = VERTEX_POINT ( 'NONE', #66 ) ;
#19 = CARTESIAN_POINT ( 'NONE',  ( 7.885605607120420841E-14, -2.765898118561395173E-15, 22.58527210038944233 ) ) ;
#20 = EDGE_LOOP ( 'NONE', ( #161 ) ) ;
#21 = CARTESIAN_POINT ( 'NONE',  ( 8.728703347107835360E-16, 1.224999999999999201, 0.2500000000000000555 ) ) ;
#22 = EDGE_LOOP ( 'NONE', ( #70 ) ) ;
#23 = VERTEX_POINT ( 'NONE', #64 ) ;
#24 = ORIENTED_EDGE ( 'NONE', *, *, #155, .F. ) ;
#25 = CC_DESIGN_PERSON_AND_ORGANIZATION_ASSIGNMENT ( #203, #234, ( #124 ) ) ;
#26 = CALENDAR_DATE ( 2021, 1, 12 ) ;
#27 = PERSON_AND_ORGANIZATION ( #100, #265 ) ;
#28 = LOCAL_TIME ( 15, 3, 33.00000000000000000, #282 ) ;
#29 = APPROVAL ( #53, 'UNSPECIFIED' ) ;
#30 = CIRCLE ( 'NONE', #71, 1.225000000000000533 ) ;
#31 = CALENDAR_DATE ( 2021, 1, 12 ) ;
#32 = APPROVAL_ROLE ( '' ) ;
#33 = AXIS2_PLACEMENT_3D ( 'NONE', #130, #61, #212 ) ;
#34 = FACE_OUTER_BOUND ( 'NONE', #217, .T. ) ;
#35 = DIRECTION ( 'NONE',  ( -3.491481338843133355E-15, 1.224646799147353207E-16, -1.000000000000000000 ) ) ;
#36 = DIRECTION ( 'NONE',  ( 0.0000000000000000000, 1.000000000000000000, 0.0000000000000000000 ) ) ;
#37 = FACE_OUTER_BOUND ( 'NONE', #39, .T. ) ;
#38 = DIRECTION ( 'NONE',  ( -3.491481338843133355E-15, 1.224646799147353207E-16, -1.000000000000000000 ) ) ;
#39 = EDGE_LOOP ( 'NONE', ( #252 ) ) ;
#40 = AXIS2_PLACEMENT_3D ( 'NONE', #114, #141, #224 ) ;
#41 = DIRECTION ( 'NONE',  ( 4.275831445896958607E-31, 1.000000000000000000, 1.224646799147353207E-16 ) ) ;
#42 = FACE_OUTER_BOUND ( 'NONE', #182, .T. ) ;
#43 = MANIFOLD_SOLID_BREP ( 'Corps-Déplacer/Copier1[1]', #179 ) ;
#44 = ORIENTED_EDGE ( 'NONE', *, *, #283, .F. ) ;
#45 =( NAMED_UNIT ( * ) PLANE_ANGLE_UNIT ( ) SI_UNIT ( $, .RADIAN. ) );
#46 = APPROVAL_PERSON_ORGANIZATION ( #258, #29, #119 ) ;
#47 = AXIS2_PLACEMENT_3D ( 'NONE', #221, #16, #134 ) ;
#48 = DIRECTION ( 'NONE',  ( 0.0000000000000000000, 0.0000000000000000000, 1.000000000000000000 ) ) ;
#49 = PRODUCT_DEFINITION ( 'UNKNOWN', '', #264, #162 ) ;
#50 = APPROVAL_DATE_TIME ( #121, #301 ) ;
#51 = DATE_AND_TIME ( #204, #28 ) ;
#52 = ORIENTED_EDGE ( 'NONE', *, *, #165, .F. ) ;
#53 = APPROVAL_STATUS ( 'not_yet_approved' ) ;
#54 = EDGE_LOOP ( 'NONE', ( #205 ) ) ;
#55 = AXIS2_PLACEMENT_3D ( 'NONE', #218, #148, #83 ) ;
#56 = PLANE ( 'NONE',  #62 ) ;
#57 = AXIS2_PLACEMENT_3D ( 'NONE', #142, #48, #206 ) ;
#58 = DIRECTION ( 'NONE',  ( -3.491481338843133355E-15, 1.224646799147353207E-16, -1.000000000000000000 ) ) ;
#59 = ADVANCED_FACE ( 'NONE', ( #267 ), #14, .F. ) ;
#60 = CARTESIAN_POINT ( 'NONE',  ( 1.745740669421566678E-13, -6.123233995736766085E-15, 50.00000000000000000 ) ) ;
#61 = DIRECTION ( 'NONE',  ( -3.491481338843133355E-15, 1.224646799147353207E-16, -1.000000000000000000 ) ) ;
#62 = AXIS2_PLACEMENT_3D ( 'NONE', #266, #173, #241 ) ;
#63 = FACE_BOUND ( 'NONE', #207, .T. ) ;
#64 = CARTESIAN_POINT ( 'NONE',  ( 3.491481338843133355E-14, 1.224999999999999201, 10.00000000000000000 ) ) ;
#65 = CIRCLE ( 'NONE', #169, 1.225000000000000533 ) ;
#66 = CARTESIAN_POINT ( 'NONE',  ( 1.892735826383161794E-31, 1.080662432702595099, 5.421010862427522170E-17 ) ) ;
#67 = EDGE_LOOP ( 'NONE', ( #139 ) ) ;
#68 = VERTEX_POINT ( 'NONE', #175 ) ;
#69 = CALENDAR_DATE ( 2021, 1, 12 ) ;
#70 = ORIENTED_EDGE ( 'NONE', *, *, #165, .T. ) ;
#71 = AXIS2_PLACEMENT_3D ( 'NONE', #247, #112, #176 ) ;
#72 = CC_DESIGN_PERSON_AND_ORGANIZATION_ASSIGNMENT ( #7, #73, ( #264 ) ) ;
#73 = PERSON_AND_ORGANIZATION_ROLE ( 'design_supplier' ) ;
#74 = LOCAL_TIME ( 15, 3, 33.00000000000000000, #256 ) ;
#75 = COORDINATED_UNIVERSAL_TIME_OFFSET ( 1, 0, .AHEAD. ) ;
#76 = CONICAL_SURFACE ( 'NONE', #94, 1.499999999999996669, 0.1745329251994267028 ) ;
#77 = DIRECTION ( 'NONE',  ( -3.491481338843133355E-15, 1.224646799147353207E-16, -1.000000000000000000 ) ) ;
#78 = FACE_OUTER_BOUND ( 'NONE', #270, .T. ) ;
#79 = CC_DESIGN_APPROVAL ( #137, ( #49 ) ) ;
#80 = ADVANCED_FACE ( 'NONE', ( #293 ), #56, .F. ) ;
#81 = CARTESIAN_POINT ( 'NONE',  ( 7.885605607120420841E-14, -2.765898118561395173E-15, 22.58527210038944233 ) ) ;
#82 = DIRECTION ( 'NONE',  ( -3.491481338843133355E-15, 1.224646799147353207E-16, -1.000000000000000000 ) ) ;
#83 = DIRECTION ( 'NONE',  ( 0.0000000000000000000, 1.000000000000000000, 0.0000000000000000000 ) ) ;
#84 = AXIS2_PLACEMENT_3D ( 'NONE', #287, #172, #131 ) ;
#85 = DIRECTION ( 'NONE',  ( -3.491481338843133355E-15, 1.224646799147353207E-16, -1.000000000000000000 ) ) ;
#86 = CARTESIAN_POINT ( 'NONE',  ( 1.745740669421566678E-13, 1.199999999999995515, 50.00000000000000000 ) ) ;
#87 = DIRECTION ( 'NONE',  ( 4.275831445896958607E-31, 1.000000000000000000, 1.224646799147353207E-16 ) ) ;
#88 = ORIENTED_EDGE ( 'NONE', *, *, #127, .T. ) ;
#89 = CARTESIAN_POINT ( 'NONE',  ( 8.728703347107829444E-16, -3.061616997868381785E-17, 0.2499999999999998890 ) ) ;
#90 = ORIENTED_EDGE ( 'NONE', *, *, #279, .T. ) ;
#91 = EDGE_LOOP ( 'NONE', ( #278 ) ) ;
#92 = PERSON_AND_ORGANIZATION_ROLE ( 'creator' ) ;
#93 = SHAPE_DEFINITION_REPRESENTATION ( #275, #292 ) ;
#94 = AXIS2_PLACEMENT_3D ( 'NONE', #81, #269, #105 ) ;
#95 = DATE_AND_TIME ( #26, #74 ) ;
#96 = ADVANCED_FACE ( 'NONE', ( #37, #210 ), #249, .T. ) ;
#97 = LOCAL_TIME ( 15, 3, 33.00000000000000000, #284 ) ;
#98 = CIRCLE ( 'NONE', #184, 1.224999999999999201 ) ;
#99 = DIRECTION ( 'NONE',  ( 3.491481338843133355E-15, -1.224646799147353207E-16, 1.000000000000000000 ) ) ;
#100 = PERSON ( 'UNSPECIFIED', 'UNSPECIFIED', 'UNSPECIFIED', ('UNSPECIFIED'), ('UNSPECIFIED'), ('UNSPECIFIED') ) ;
#101 = DIRECTION ( 'NONE',  ( -3.491481338843133355E-15, 1.224646799147353207E-16, -1.000000000000000000 ) ) ;
#102 = EDGE_CURVE ( 'NONE', #274, #274, #298, .T. ) ;
#103 = DIRECTION ( 'NONE',  ( 0.0000000000000000000, 1.000000000000000000, 0.0000000000000000000 ) ) ;
#104 = AXIS2_PLACEMENT_3D ( 'NONE', #209, #58, #263 ) ;
#105 = DIRECTION ( 'NONE',  ( 0.0000000000000000000, -1.000000000000000000, 0.0000000000000000000 ) ) ;
#106 = FACE_OUTER_BOUND ( 'NONE', #237, .T. ) ;
#107 = FACE_OUTER_BOUND ( 'NONE', #54, .T. ) ;
#108 = TOROIDAL_SURFACE ( 'NONE', #280, 3.075000000000000622, 2.000000000000000888 ) ;
#109 = PLANE ( 'NONE',  #156 ) ;
#110 = DIRECTION ( 'NONE',  ( 3.491481338843133355E-15, -1.224646799147353207E-16, 1.000000000000000000 ) ) ;
#111 = ADVANCED_FACE ( 'NONE', ( #238, #288 ), #242, .T. ) ;
#112 = DIRECTION ( 'NONE',  ( -3.491481338843133355E-15, 1.224646799147353207E-16, -1.000000000000000000 ) ) ;
#113 = AXIS2_PLACEMENT_3D ( 'NONE', #153, #101, #194 ) ;
#114 = CARTESIAN_POINT ( 'NONE',  ( 6.982962677686265448E-14, -2.449293598294706119E-15, 19.99999999999999645 ) ) ;
#115 = EDGE_LOOP ( 'NONE', ( #24 ) ) ;
#116 = DATE_TIME_ROLE ( 'creation_date' ) ;
#117 = PERSON_AND_ORGANIZATION_ROLE ( 'creator' ) ;
#118 = AXIS2_PLACEMENT_3D ( 'NONE', #11, #99, #190 ) ;
#119 = APPROVAL_ROLE ( '' ) ;
#120 = AXIS2_PLACEMENT_3D ( 'NONE', #170, #35, #103 ) ;
#121 = DATE_AND_TIME ( #31, #97 ) ;
#122 = ADVANCED_FACE ( 'NONE', ( #106, #216 ), #163, .T. ) ;
#123 = APPLICATION_PROTOCOL_DEFINITION ( 'international standard', 'config_control_design', 1994, #297 ) ;
#124 = SECURITY_CLASSIFICATION ( '', '', #259 ) ;
#125 = CARTESIAN_POINT ( 'NONE',  ( 8.728703347107829444E-16, -3.061616997868381785E-17, 0.2499999999999998890 ) ) ;
#126 = CIRCLE ( 'NONE', #47, 1.200000000000001732 ) ;
#127 = EDGE_CURVE ( 'NONE', #202, #202, #65, .T. ) ;
#128 = EDGE_LOOP ( 'NONE', ( #219 ) ) ;
#129 = ORIENTED_EDGE ( 'NONE', *, *, #231, .F. ) ;
#130 = CARTESIAN_POINT ( 'NONE',  ( 0.0000000000000000000, 0.0000000000000000000, 0.0000000000000000000 ) ) ;
#131 = DIRECTION ( 'NONE',  ( 4.275831445896958607E-31, 1.000000000000000000, 1.224646799147353454E-16 ) ) ;
#132 = DIRECTION ( 'NONE',  ( -3.491481338843133355E-15, 1.224646799147353207E-16, -1.000000000000000000 ) ) ;
#133 = DIRECTION ( 'NONE',  ( 3.491481338843133355E-15, -1.224646799147353207E-16, 1.000000000000000000 ) ) ;
#134 = DIRECTION ( 'NONE',  ( 0.0000000000000000000, 1.000000000000000000, 0.0000000000000000000 ) ) ;
#135 = APPROVAL_PERSON_ORGANIZATION ( #146, #301, #32 ) ;
#136 = CIRCLE ( 'NONE', #233, 1.500000000000001554 ) ;
#137 = APPROVAL ( #277, 'UNSPECIFIED' ) ;
#138 = CARTESIAN_POINT ( 'NONE',  ( 6.982962677686266711E-14, -2.602085213965210642E-15, 20.00000000000000000 ) ) ;
#139 = ORIENTED_EDGE ( 'NONE', *, *, #8, .F. ) ;
#140 = FACE_OUTER_BOUND ( 'NONE', #262, .T. ) ;
#141 = DIRECTION ( 'NONE',  ( -3.491481338843133355E-15, 1.224646799147353207E-16, -1.000000000000000000 ) ) ;
#142 = CARTESIAN_POINT ( 'NONE',  ( 0.0000000000000000000, 0.0000000000000000000, 0.0000000000000000000 ) ) ;
#143 = ADVANCED_FACE ( 'NONE', ( #12, #296 ), #76, .T. ) ;
#144 = ORIENTED_EDGE ( 'NONE', *, *, #171, .T. ) ;
#145 = DATE_AND_TIME ( #5, #193 ) ;
#146 = PERSON_AND_ORGANIZATION ( #100, #265 ) ;
#147 = APPROVAL_STATUS ( 'not_yet_approved' ) ;
#148 = DIRECTION ( 'NONE',  ( -3.491481338843133355E-15, 1.224646799147353207E-16, -1.000000000000000000 ) ) ;
#149 = ORIENTED_EDGE ( 'NONE', *, *, #231, .T. ) ;
#150 = DIRECTION ( 'NONE',  ( 4.716563129111601082E-31, 1.000000000000000000, 1.327594496921026703E-16 ) ) ;
#151 = AXIS2_PLACEMENT_3D ( 'NONE', #19, #85, #199 ) ;
#152 = CARTESIAN_POINT ( 'NONE',  ( 1.735266225405037467E-13, -6.086494591762345225E-15, 49.70000000000000284 ) ) ;
#153 = CARTESIAN_POINT ( 'NONE',  ( 0.0000000000000000000, 0.0000000000000000000, 0.0000000000000000000 ) ) ;
#154 = DIRECTION ( 'NONE',  ( 0.0000000000000000000, 1.000000000000000000, 0.0000000000000000000 ) ) ;
#155 = EDGE_CURVE ( 'NONE', #299, #299, #98, .T. ) ;
#156 = AXIS2_PLACEMENT_3D ( 'NONE', #302, #110, #246 ) ;
#157 = FACE_OUTER_BOUND ( 'NONE', #211, .T. ) ;
#158 =( LENGTH_UNIT ( ) NAMED_UNIT ( * ) SI_UNIT ( .MILLI., .METRE. ) );
#159 =( GEOMETRIC_REPRESENTATION_CONTEXT ( 3 ) GLOBAL_UNCERTAINTY_ASSIGNED_CONTEXT ( ( #257 ) ) GLOBAL_UNIT_ASSIGNED_CONTEXT ( ( #158, #45, #1 ) ) REPRESENTATION_CONTEXT ( 'NONE', 'WORKASPACE' ) );
#160 = VERTEX_POINT ( 'NONE', #227 ) ;
#161 = ORIENTED_EDGE ( 'NONE', *, *, #283, .T. ) ;
#162 = DESIGN_CONTEXT ( 'detailed design', #297, 'design' ) ;
#163 = CONICAL_SURFACE ( 'NONE', #243, 1.200000000000001732, 0.7853981633974453924 ) ;
#164 = APPROVAL_DATE_TIME ( #232, #137 ) ;
#165 = EDGE_CURVE ( 'NONE', #18, #18, #188, .T. ) ;
#166 = APPROVAL_DATE_TIME ( #95, #29 ) ;
#167 = DIRECTION ( 'NONE',  ( 0.0000000000000000000, 1.000000000000000000, 0.0000000000000000000 ) ) ;
#168 = CYLINDRICAL_SURFACE ( 'NONE', #33, 1.224999999999999867 ) ;
#169 = AXIS2_PLACEMENT_3D ( 'NONE', #9, #132, #195 ) ;
#170 = CARTESIAN_POINT ( 'NONE',  ( 3.582192684931459116E-14, -1.256464056309101033E-15, 10.25980762113533729 ) ) ;
#171 = EDGE_CURVE ( 'NONE', #68, #68, #136, .T. ) ;
#172 = DIRECTION ( 'NONE',  ( -3.491481338843133355E-15, 1.224646799147353207E-16, -1.000000000000000000 ) ) ;
#173 = DIRECTION ( 'NONE',  ( 3.491481338843133355E-15, -1.224646799147353207E-16, 1.000000000000000000 ) ) ;
#174 = APPROVAL_PERSON_ORGANIZATION ( #281, #137, #2 ) ;
#175 = CARTESIAN_POINT ( 'NONE',  ( 1.735266225405037467E-13, 1.499999999999995559, 49.70000000000000284 ) ) ;
#176 = DIRECTION ( 'NONE',  ( 0.0000000000000000000, 1.000000000000000000, 0.0000000000000000000 ) ) ;
#177 = DIRECTION ( 'NONE',  ( -3.491481338843133355E-15, 1.224646799147353207E-16, -1.000000000000000000 ) ) ;
#178 = VERTEX_POINT ( 'NONE', #197 ) ;
#179 = CLOSED_SHELL ( 'NONE', ( #80, #96, #181, #295, #143, #111, #122, #213 ) ) ;
#180 = ORIENTED_EDGE ( 'NONE', *, *, #189, .T. ) ;
#181 = ADVANCED_FACE ( 'NONE', ( #239, #34 ), #10, .T. ) ;
#182 = EDGE_LOOP ( 'NONE', ( #44 ) ) ;
#183 = PERSON_AND_ORGANIZATION ( #100, #265 ) ;
#184 = AXIS2_PLACEMENT_3D ( 'NONE', #125, #77, #150 ) ;
#185 = ADVANCED_FACE ( 'NONE', ( #268, #78 ), #168, .T. ) ;
#186 = PERSON_AND_ORGANIZATION ( #100, #265 ) ;
#187 = CC_DESIGN_APPROVAL ( #29, ( #264 ) ) ;
#188 = CIRCLE ( 'NONE', #104, 1.080662432702595099 ) ;
#189 = EDGE_CURVE ( 'NONE', #160, #160, #201, .T. ) ;
#190 = DIRECTION ( 'NONE',  ( -4.275831445896958607E-31, -1.000000000000000000, -1.224646799147353207E-16 ) ) ;
#191 = EDGE_LOOP ( 'NONE', ( #149 ) ) ;
#192 = DIRECTION ( 'NONE',  ( -3.491481338843133355E-15, 1.224646799147353207E-16, -1.000000000000000000 ) ) ;
#193 = LOCAL_TIME ( 15, 3, 33.00000000000000000, #75 ) ;
#194 = DIRECTION ( 'NONE',  ( 4.275831445896958607E-31, 1.000000000000000000, 1.224646799147353207E-16 ) ) ;
#195 = DIRECTION ( 'NONE',  ( 0.0000000000000000000, 1.000000000000000000, 0.0000000000000000000 ) ) ;
#196 = PRODUCT_RELATED_PRODUCT_CATEGORY ( 'detail', '', ( #289 ) ) ;
#197 = CARTESIAN_POINT ( 'NONE',  ( 7.104220552055900573E-14, 1.105384493975577476, 20.34729635533384240 ) ) ;
#198 = CONICAL_SURFACE ( 'NONE', #229, 1.224999999999999201, 0.5235987755982921543 ) ;
#199 = DIRECTION ( 'NONE',  ( 0.0000000000000000000, 1.000000000000000000, 0.0000000000000000000 ) ) ;
#200 = FACE_OUTER_BOUND ( 'NONE', #294, .T. ) ;
#201 = CIRCLE ( 'NONE', #40, 1.075000000000000178 ) ;
#202 = VERTEX_POINT ( 'NONE', #300 ) ;
#203 = PERSON_AND_ORGANIZATION ( #100, #265 ) ;
#204 = CALENDAR_DATE ( 2021, 1, 12 ) ;
#205 = ORIENTED_EDGE ( 'NONE', *, *, #8, .T. ) ;
#206 = DIRECTION ( 'NONE',  ( 1.000000000000000000, 0.0000000000000000000, 0.0000000000000000000 ) ) ;
#207 = EDGE_LOOP ( 'NONE', ( #52 ) ) ;
#208 = CC_DESIGN_DATE_AND_TIME_ASSIGNMENT ( #145, #116, ( #49 ) ) ;
#209 = CARTESIAN_POINT ( 'NONE',  ( -2.727994585766100781E-31, 9.568516951193887591E-33, -7.813287029252729954E-17 ) ) ;
#210 = FACE_BOUND ( 'NONE', #128, .T. ) ;
#211 = EDGE_LOOP ( 'NONE', ( #253 ) ) ;
#212 = DIRECTION ( 'NONE',  ( 4.275831445896958607E-31, 1.000000000000000000, 1.224646799147353454E-16 ) ) ;
#213 = ADVANCED_FACE ( 'NONE', ( #42 ), #303, .F. ) ;
#214 = EDGE_LOOP ( 'NONE', ( #144 ) ) ;
#215 = CIRCLE ( 'NONE', #55, 1.105384493975579918 ) ;
#216 = FACE_BOUND ( 'NONE', #20, .T. ) ;
#217 = EDGE_LOOP ( 'NONE', ( #180 ) ) ;
#218 = CARTESIAN_POINT ( 'NONE',  ( 7.104220552055900573E-14, -2.491825135286219437E-15, 20.34729635533384240 ) ) ;
#219 = ORIENTED_EDGE ( 'NONE', *, *, #102, .T. ) ;
#220 = ORIENTED_EDGE ( 'NONE', *, *, #189, .F. ) ;
#221 = CARTESIAN_POINT ( 'NONE',  ( 1.745740669421566678E-13, -6.123233995736766085E-15, 50.00000000000000000 ) ) ;
#222 = ORIENTED_EDGE ( 'NONE', *, *, #127, .F. ) ;
#223 = CARTESIAN_POINT ( 'NONE',  ( 7.885605607120420841E-14, 1.499999999999994005, 22.58527210038944233 ) ) ;
#224 = DIRECTION ( 'NONE',  ( 0.0000000000000000000, 1.000000000000000000, 0.0000000000000000000 ) ) ;
#225 = CARTESIAN_POINT ( 'NONE',  ( 3.582192684931459116E-14, 1.074999999999997735, 10.25980762113533729 ) ) ;
#226 = ADVANCED_FACE ( 'NONE', ( #140 ), #109, .T. ) ;
#227 = CARTESIAN_POINT ( 'NONE',  ( 6.982962677686265448E-14, 1.074999999999997735, 19.99999999999999645 ) ) ;
#228 = CC_DESIGN_SECURITY_CLASSIFICATION ( #124, ( #264 ) ) ;
#229 = AXIS2_PLACEMENT_3D ( 'NONE', #89, #133, #251 ) ;
#230 = PERSON_AND_ORGANIZATION_ROLE ( 'design_owner' ) ;
#231 = EDGE_CURVE ( 'NONE', #271, #271, #4, .T. ) ;
#232 = DATE_AND_TIME ( #69, #17 ) ;
#233 = AXIS2_PLACEMENT_3D ( 'NONE', #152, #82, #36 ) ;
#234 = PERSON_AND_ORGANIZATION_ROLE ( 'classification_officer' ) ;
#235 = MECHANICAL_CONTEXT ( 'NONE', #248, 'mechanical' ) ;
#236 = CC_DESIGN_DATE_AND_TIME_ASSIGNMENT ( #51, #3, ( #124 ) ) ;
#237 = EDGE_LOOP ( 'NONE', ( #15 ) ) ;
#238 = FACE_OUTER_BOUND ( 'NONE', #245, .T. ) ;
#239 = FACE_OUTER_BOUND ( 'NONE', #91, .T. ) ;
#240 = MANIFOLD_SOLID_BREP ( 'Corps-Déplacer/Copier1[2]', #261 ) ;
#241 = DIRECTION ( 'NONE',  ( -4.275831445896958607E-31, -1.000000000000000000, -1.224646799147353207E-16 ) ) ;
#242 = CYLINDRICAL_SURFACE ( 'NONE', #84, 1.499999999999999112 ) ;
#243 = AXIS2_PLACEMENT_3D ( 'NONE', #60, #291, #167 ) ;
#244 = CARTESIAN_POINT ( 'NONE',  ( 3.582192684931459116E-14, -1.256464056309101033E-15, 10.25980762113533729 ) ) ;
#245 = EDGE_LOOP ( 'NONE', ( #129 ) ) ;
#246 = DIRECTION ( 'NONE',  ( -4.275831445896958607E-31, -1.000000000000000000, -1.224646799147353207E-16 ) ) ;
#247 = CARTESIAN_POINT ( 'NONE',  ( 3.491481338843133355E-14, -1.224646799147353256E-15, 10.00000000000000000 ) ) ;
#248 = APPLICATION_CONTEXT ( 'configuration controlled 3d designs of mechanical parts and assemblies' ) ;
#249 = CONICAL_SURFACE ( 'NONE', #120, 1.074999999999999067, 0.5235987755982947078 ) ;
#250 = ADVANCED_FACE ( 'NONE', ( #63, #157 ), #198, .T. ) ;
#251 = DIRECTION ( 'NONE',  ( -4.716563129111601082E-31, -1.000000000000000000, -1.327594496921026703E-16 ) ) ;
#252 = ORIENTED_EDGE ( 'NONE', *, *, #279, .F. ) ;
#253 = ORIENTED_EDGE ( 'NONE', *, *, #155, .T. ) ;
#254 = APPLICATION_PROTOCOL_DEFINITION ( 'international standard', 'config_control_design', 1994, #248 ) ;
#255 = CC_DESIGN_PERSON_AND_ORGANIZATION_ASSIGNMENT ( #186, #117, ( #264 ) ) ;
#256 = COORDINATED_UNIVERSAL_TIME_OFFSET ( 1, 0, .AHEAD. ) ;
#257 = UNCERTAINTY_MEASURE_WITH_UNIT (LENGTH_MEASURE( 1.000000000000000082E-05 ), #158, 'distance_accuracy_value', 'NONE');
#258 = PERSON_AND_ORGANIZATION ( #100, #265 ) ;
#259 = SECURITY_CLASSIFICATION_LEVEL ( 'unclassified' ) ;
#260 = COORDINATED_UNIVERSAL_TIME_OFFSET ( 1, 0, .AHEAD. ) ;
#261 = CLOSED_SHELL ( 'NONE', ( #59, #250, #185, #226 ) ) ;
#262 = EDGE_LOOP ( 'NONE', ( #222 ) ) ;
#263 = DIRECTION ( 'NONE',  ( 4.275831445896958607E-31, 1.000000000000000000, 1.224646799147353207E-16 ) ) ;
#264 = PRODUCT_DEFINITION_FORMATION_WITH_SPECIFIED_SOURCE ( 'ANY', '', #289, .NOT_KNOWN. ) ;
#265 = ORGANIZATION ( 'UNSPECIFIED', 'UNSPECIFIED', '' ) ;
#266 = CARTESIAN_POINT ( 'NONE',  ( 3.491481338843133355E-14, 9.186028668803864163E-33, 10.00000000000000000 ) ) ;
#267 = FACE_OUTER_BOUND ( 'NONE', #22, .T. ) ;
#268 = FACE_OUTER_BOUND ( 'NONE', #115, .T. ) ;
#269 = DIRECTION ( 'NONE',  ( 3.491481338843133355E-15, -1.224646799147353207E-16, 1.000000000000000000 ) ) ;
#270 = EDGE_LOOP ( 'NONE', ( #88 ) ) ;
#271 = VERTEX_POINT ( 'NONE', #223 ) ;
#272 = CARTESIAN_POINT ( 'NONE',  ( 1.745740669421566678E-13, 8.998558695971067645E-33, 50.00000000000000000 ) ) ;
#273 = EDGE_LOOP ( 'NONE', ( #90 ) ) ;
#274 = VERTEX_POINT ( 'NONE', #225 ) ;
#275 = PRODUCT_DEFINITION_SHAPE ( 'NONE', 'NONE',  #49 ) ;
#276 = VERTEX_POINT ( 'NONE', #86 ) ;
#277 = APPROVAL_STATUS ( 'not_yet_approved' ) ;
#278 = ORIENTED_EDGE ( 'NONE', *, *, #102, .F. ) ;
#279 = EDGE_CURVE ( 'NONE', #23, #23, #30, .T. ) ;
#280 = AXIS2_PLACEMENT_3D ( 'NONE', #138, #177, #87 ) ;
#281 = PERSON_AND_ORGANIZATION ( #100, #265 ) ;
#282 = COORDINATED_UNIVERSAL_TIME_OFFSET ( 1, 0, .AHEAD. ) ;
#283 = EDGE_CURVE ( 'NONE', #276, #276, #126, .T. ) ;
#284 = COORDINATED_UNIVERSAL_TIME_OFFSET ( 1, 0, .AHEAD. ) ;
#285 = CC_DESIGN_APPROVAL ( #301, ( #124 ) ) ;
#286 = AXIS2_PLACEMENT_3D ( 'NONE', #272, #38, #41 ) ;
#287 = CARTESIAN_POINT ( 'NONE',  ( 0.0000000000000000000, 0.0000000000000000000, 0.0000000000000000000 ) ) ;
#288 = FACE_OUTER_BOUND ( 'NONE', #214, .T. ) ;
#289 = PRODUCT ( '200695', '200695', '', ( #235 ) ) ;
#290 = AXIS2_PLACEMENT_3D ( 'NONE', #244, #192, #154 ) ;
#291 = DIRECTION ( 'NONE',  ( -3.491481338843133355E-15, 1.224646799147353207E-16, -1.000000000000000000 ) ) ;
#292 = ADVANCED_BREP_SHAPE_REPRESENTATION ( '200695', ( #43, #240, #57 ), #159 ) ;
#293 = FACE_OUTER_BOUND ( 'NONE', #273, .T. ) ;
#294 = EDGE_LOOP ( 'NONE', ( #220 ) ) ;
#295 = ADVANCED_FACE ( 'NONE', ( #200, #107 ), #108, .F. ) ;
#296 = FACE_OUTER_BOUND ( 'NONE', #191, .T. ) ;
#297 = APPLICATION_CONTEXT ( 'configuration controlled 3d designs of mechanical parts and assemblies' ) ;
#298 = CIRCLE ( 'NONE', #290, 1.074999999999999067 ) ;
#299 = VERTEX_POINT ( 'NONE', #21 ) ;
#300 = CARTESIAN_POINT ( 'NONE',  ( 3.491481338843133355E-14, 1.224999999999999201, 10.00000000000000000 ) ) ;
#301 = APPROVAL ( #147, 'UNSPECIFIED' ) ;
#302 = CARTESIAN_POINT ( 'NONE',  ( 3.491481338843133355E-14, 9.186028668803864163E-33, 10.00000000000000000 ) ) ;
#303 = PLANE ( 'NONE',  #286 ) ;
ENDSEC;
END-ISO-10303-21;
