ISO-10303-21;
HEADER;
FILE_DESCRIPTION (( 'STEP AP203' ),
    '1' );
FILE_NAME ('200694.step',
    '2021-12-01T14:03:32',
    ( '' ),
    ( '' ),
    'SwSTEP 2.0',
    'SolidWorks 2019',
    '' );
FILE_SCHEMA (( 'CONFIG_CONTROL_DESIGN' ));
ENDSEC;

DATA;
#1 = CIRCLE ( 'NONE', #80, 1.499999999999996669 ) ;
#2 = ADVANCED_FACE ( 'NONE', ( #65 ), #159, .F. ) ;
#3 = DIRECTION ( 'NONE',  ( -3.491481338843133355E-15, 1.224646799147353207E-16, -1.000000000000000000 ) ) ;
#4 = FACE_OUTER_BOUND ( 'NONE', #21, .T. ) ;
#5 = FACE_OUTER_BOUND ( 'NONE', #89, .T. ) ;
#6 = CC_DESIGN_PERSON_AND_ORGANIZATION_ASSIGNMENT ( #275, #20, ( #263 ) ) ;
#7 = CIRCLE ( 'NONE', #229, 0.7306624327025945664 ) ;
#8 = VERTEX_POINT ( 'NONE', #31 ) ;
#9 = CARTESIAN_POINT ( 'NONE',  ( 7.432196444682971675E-14, -2.606863592640919811E-15, 21.28665664627482812 ) ) ;
#10 = CARTESIAN_POINT ( 'NONE',  ( 7.432196444682971675E-14, 1.499999999999994005, 21.28665664627482812 ) ) ;
#11 = PERSON_AND_ORGANIZATION_ROLE ( 'design_supplier' ) ;
#12 = ADVANCED_FACE ( 'NONE', ( #251, #42 ), #183, .T. ) ;
#13 = DIRECTION ( 'NONE',  ( 1.000000000000000000, 0.0000000000000000000, 0.0000000000000000000 ) ) ;
#14 = DIRECTION ( 'NONE',  ( 3.491481338843133355E-15, -1.224646799147353207E-16, 1.000000000000000000 ) ) ;
#15 = EDGE_LOOP ( 'NONE', ( #201 ) ) ;
#16 = AXIS2_PLACEMENT_3D ( 'NONE', #114, #280, #138 ) ;
#17 = ORIENTED_EDGE ( 'NONE', *, *, #55, .T. ) ;
#18 = EDGE_LOOP ( 'NONE', ( #46 ) ) ;
#19 = VERTEX_POINT ( 'NONE', #86 ) ;
#20 = PERSON_AND_ORGANIZATION_ROLE ( 'creator' ) ;
#21 = EDGE_LOOP ( 'NONE', ( #223 ) ) ;
#22 = MECHANICAL_CONTEXT ( 'NONE', #157, 'mechanical' ) ;
#23 = CIRCLE ( 'NONE', #53, 0.7750000000000000222 ) ;
#24 = DIRECTION ( 'NONE',  ( 4.275831445896958607E-31, 1.000000000000000000, 1.224646799147353207E-16 ) ) ;
#25 =( NAMED_UNIT ( * ) PLANE_ANGLE_UNIT ( ) SI_UNIT ( $, .RADIAN. ) );
#26 = CARTESIAN_POINT ( 'NONE',  ( 1.735266225405037467E-13, -6.086494591762345225E-15, 49.70000000000000284 ) ) ;
#27 = CARTESIAN_POINT ( 'NONE',  ( -2.508462616234242371E-31, 8.798502456753584780E-33, -7.184522478546015152E-17 ) ) ;
#28 = DIRECTION ( 'NONE',  ( -3.491481338843133355E-15, 1.224646799147353207E-16, -1.000000000000000000 ) ) ;
#29 = FACE_OUTER_BOUND ( 'NONE', #273, .T. ) ;
#30 = MANIFOLD_SOLID_BREP ( 'Corps-Déplacer/Copier1[1]', #242 ) ;
#31 = CARTESIAN_POINT ( 'NONE',  ( 2.444036937190193349E-14, 0.8749999999999991118, 7.000000000000000000 ) ) ;
#32 = FACE_OUTER_BOUND ( 'NONE', #40, .T. ) ;
#33 = AXIS2_PLACEMENT_3D ( 'NONE', #181, #230, #203 ) ;
#34 = APPROVAL_PERSON_ORGANIZATION ( #84, #113, #246 ) ;
#35 = PERSON_AND_ORGANIZATION ( #216, #231 ) ;
#36 = CALENDAR_DATE ( 2021, 1, 12 ) ;
#37 = EDGE_LOOP ( 'NONE', ( #179 ) ) ;
#38 = AXIS2_PLACEMENT_3D ( 'NONE', #258, #47, #121 ) ;
#39 = ADVANCED_FACE ( 'NONE', ( #5, #185 ), #98, .T. ) ;
#40 = EDGE_LOOP ( 'NONE', ( #111 ) ) ;
#41 = CARTESIAN_POINT ( 'NONE',  ( 2.444036937190193349E-14, 6.561449049145614718E-33, 7.000000000000000000 ) ) ;
#42 = FACE_OUTER_BOUND ( 'NONE', #252, .T. ) ;
#43 = CIRCLE ( 'NONE', #112, 1.500000000000001554 ) ;
#44 = CARTESIAN_POINT ( 'NONE',  ( 2.444036937190193349E-14, -8.572527594031473190E-16, 7.000000000000000000 ) ) ;
#45 = LOCAL_TIME ( 15, 3, 32.00000000000000000, #135 ) ;
#46 = ORIENTED_EDGE ( 'NONE', *, *, #49, .F. ) ;
#47 = DIRECTION ( 'NONE',  ( -3.491481338843133355E-15, 1.224646799147353207E-16, -1.000000000000000000 ) ) ;
#48 = DIRECTION ( 'NONE',  ( -3.491481338843133355E-15, 1.224646799147353207E-16, -1.000000000000000000 ) ) ;
#49 = EDGE_CURVE ( 'NONE', #19, #19, #72, .T. ) ;
#50 = DIRECTION ( 'NONE',  ( 0.0000000000000000000, 1.000000000000000000, 0.0000000000000000000 ) ) ;
#51 = PRODUCT_DEFINITION_FORMATION_WITH_SPECIFIED_SOURCE ( 'ANY', '', #239, .NOT_KNOWN. ) ;
#52 = CYLINDRICAL_SURFACE ( 'NONE', #215, 1.499999999999999112 ) ;
#53 = AXIS2_PLACEMENT_3D ( 'NONE', #282, #165, #50 ) ;
#54 = DIRECTION ( 'NONE',  ( 0.0000000000000000000, -1.000000000000000000, 0.0000000000000000000 ) ) ;
#55 = EDGE_CURVE ( 'NONE', #297, #297, #23, .T. ) ;
#56 = CONICAL_SURFACE ( 'NONE', #38, 1.200000000000001732, 0.7853981633974453924 ) ;
#57 = APPROVAL_DATE_TIME ( #171, #191 ) ;
#58 =( GEOMETRIC_REPRESENTATION_CONTEXT ( 3 ) GLOBAL_UNCERTAINTY_ASSIGNED_CONTEXT ( ( #69 ) ) GLOBAL_UNIT_ASSIGNED_CONTEXT ( ( #145, #25, #186 ) ) REPRESENTATION_CONTEXT ( 'NONE', 'WORKASPACE' ) );
#59 = EDGE_LOOP ( 'NONE', ( #82 ) ) ;
#60 = ORIENTED_EDGE ( 'NONE', *, *, #78, .T. ) ;
#61 = ORIENTED_EDGE ( 'NONE', *, *, #94, .T. ) ;
#62 = CIRCLE ( 'NONE', #118, 0.7749999999999989120 ) ;
#63 = EDGE_CURVE ( 'NONE', #103, #103, #62, .T. ) ;
#64 = COORDINATED_UNIVERSAL_TIME_OFFSET ( 1, 0, .AHEAD. ) ;
#65 = FACE_OUTER_BOUND ( 'NONE', #174, .T. ) ;
#66 = EDGE_CURVE ( 'NONE', #8, #8, #210, .T. ) ;
#67 = AXIS2_PLACEMENT_3D ( 'NONE', #44, #232, #283 ) ;
#68 = DIRECTION ( 'NONE',  ( -3.491481338843133355E-15, 1.224646799147353207E-16, -1.000000000000000000 ) ) ;
#69 = UNCERTAINTY_MEASURE_WITH_UNIT (LENGTH_MEASURE( 1.000000000000000082E-05 ), #145, 'distance_accuracy_value', 'NONE');
#70 = CARTESIAN_POINT ( 'NONE',  ( 6.056776150402961829E-14, -2.124431095542013598E-15, 17.34729635533384240 ) ) ;
#71 = CARTESIAN_POINT ( 'NONE',  ( 1.745740669421566678E-13, 8.998558695971067645E-33, 50.00000000000000000 ) ) ;
#72 = CIRCLE ( 'NONE', #106, 0.8750000000000000000 ) ;
#73 = APPROVAL_PERSON_ORGANIZATION ( #272, #191, #288 ) ;
#74 = ADVANCED_FACE ( 'NONE', ( #212, #140 ), #56, .T. ) ;
#75 = CARTESIAN_POINT ( 'NONE',  ( 8.728703347107833388E-16, 0.8749999999999991118, 0.2500000000000000000 ) ) ;
#76 = AXIS2_PLACEMENT_3D ( 'NONE', #41, #202, #226 ) ;
#77 = VERTEX_POINT ( 'NONE', #267 ) ;
#78 = EDGE_CURVE ( 'NONE', #126, #126, #7, .T. ) ;
#79 = PERSON_AND_ORGANIZATION_ROLE ( 'creator' ) ;
#80 = AXIS2_PLACEMENT_3D ( 'NONE', #214, #100, #266 ) ;
#81 = DATE_AND_TIME ( #195, #45 ) ;
#82 = ORIENTED_EDGE ( 'NONE', *, *, #94, .F. ) ;
#83 = CC_DESIGN_DATE_AND_TIME_ASSIGNMENT ( #81, #253, ( #236 ) ) ;
#84 = PERSON_AND_ORGANIZATION ( #216, #231 ) ;
#85 = EDGE_LOOP ( 'NONE', ( #109 ) ) ;
#86 = CARTESIAN_POINT ( 'NONE',  ( 2.444036937190193349E-14, 0.8749999999999991118, 7.000000000000000000 ) ) ;
#87 = CARTESIAN_POINT ( 'NONE',  ( 2.504511167915743751E-14, -8.784642641776459355E-16, 7.173205080756892116 ) ) ;
#88 = APPLICATION_PROTOCOL_DEFINITION ( 'international standard', 'config_control_design', 1994, #102 ) ;
#89 = EDGE_LOOP ( 'NONE', ( #225 ) ) ;
#90 = DIRECTION ( 'NONE',  ( 0.0000000000000000000, 1.000000000000000000, 0.0000000000000000000 ) ) ;
#91 = DIRECTION ( 'NONE',  ( 0.0000000000000000000, 1.000000000000000000, 0.0000000000000000000 ) ) ;
#92 = AXIS2_PLACEMENT_3D ( 'NONE', #9, #168, #54 ) ;
#93 = CARTESIAN_POINT ( 'NONE',  ( 0.0000000000000000000, 0.0000000000000000000, 0.0000000000000000000 ) ) ;
#94 = EDGE_CURVE ( 'NONE', #218, #218, #99, .T. ) ;
#95 = CARTESIAN_POINT ( 'NONE',  ( 1.745740669421566678E-13, 1.199999999999995515, 50.00000000000000000 ) ) ;
#96 = EDGE_LOOP ( 'NONE', ( #137 ) ) ;
#97 = DIRECTION ( 'NONE',  ( 4.275831445896958607E-31, 1.000000000000000000, 1.224646799147353207E-16 ) ) ;
#98 = CYLINDRICAL_SURFACE ( 'NONE', #192, 0.8749999999999995559 ) ;
#99 = CIRCLE ( 'NONE', #287, 0.8053844939755810950 ) ;
#100 = DIRECTION ( 'NONE',  ( -3.491481338843133355E-15, 1.224646799147353207E-16, -1.000000000000000000 ) ) ;
#101 = LOCAL_TIME ( 15, 3, 32.00000000000000000, #64 ) ;
#102 = APPLICATION_CONTEXT ( 'configuration controlled 3d designs of mechanical parts and assemblies' ) ;
#103 = VERTEX_POINT ( 'NONE', #219 ) ;
#104 = PERSON_AND_ORGANIZATION_ROLE ( 'classification_officer' ) ;
#105 = CALENDAR_DATE ( 2021, 1, 12 ) ;
#106 = AXIS2_PLACEMENT_3D ( 'NONE', #188, #116, #91 ) ;
#107 = EDGE_LOOP ( 'NONE', ( #60 ) ) ;
#108 = COORDINATED_UNIVERSAL_TIME_OFFSET ( 1, 0, .AHEAD. ) ;
#109 = ORIENTED_EDGE ( 'NONE', *, *, #136, .T. ) ;
#110 = PERSON_AND_ORGANIZATION_ROLE ( 'design_owner' ) ;
#111 = ORIENTED_EDGE ( 'NONE', *, *, #234, .T. ) ;
#112 = AXIS2_PLACEMENT_3D ( 'NONE', #26, #163, #211 ) ;
#113 = APPROVAL ( #224, 'UNSPECIFIED' ) ;
#114 = CARTESIAN_POINT ( 'NONE',  ( 5.935518276033326704E-14, -2.168404344971008868E-15, 17.00000000000000000 ) ) ;
#115 = CARTESIAN_POINT ( 'NONE',  ( 1.745740669421566678E-13, -6.123233995736766085E-15, 50.00000000000000000 ) ) ;
#116 = DIRECTION ( 'NONE',  ( -3.491481338843133355E-15, 1.224646799147353207E-16, -1.000000000000000000 ) ) ;
#117 = DIRECTION ( 'NONE',  ( -3.491481338843133355E-15, 1.224646799147353207E-16, -1.000000000000000000 ) ) ;
#118 = AXIS2_PLACEMENT_3D ( 'NONE', #143, #235, #257 ) ;
#119 = PLANE ( 'NONE',  #250 ) ;
#120 = LOCAL_TIME ( 15, 3, 32.00000000000000000, #158 ) ;
#121 = DIRECTION ( 'NONE',  ( 0.0000000000000000000, 1.000000000000000000, 0.0000000000000000000 ) ) ;
#122 = FACE_OUTER_BOUND ( 'NONE', #85, .T. ) ;
#123 = VERTEX_POINT ( 'NONE', #75 ) ;
#124 = ADVANCED_FACE ( 'NONE', ( #233 ), #119, .F. ) ;
#125 = AXIS2_PLACEMENT_3D ( 'NONE', #294, #150, #128 ) ;
#126 = VERTEX_POINT ( 'NONE', #193 ) ;
#127 = VERTEX_POINT ( 'NONE', #10 ) ;
#128 = DIRECTION ( 'NONE',  ( 4.402125587170829311E-31, 1.000000000000000000, 1.239088197126292050E-16 ) ) ;
#129 = PERSON_AND_ORGANIZATION ( #216, #231 ) ;
#130 = APPROVAL_STATUS ( 'not_yet_approved' ) ;
#131 = AXIS2_PLACEMENT_3D ( 'NONE', #87, #277, #90 ) ;
#132 = EDGE_LOOP ( 'NONE', ( #228 ) ) ;
#133 = ORIENTED_EDGE ( 'NONE', *, *, #207, .T. ) ;
#134 = MANIFOLD_SOLID_BREP ( 'Corps-Déplacer/Copier1[2]', #151 ) ;
#135 = COORDINATED_UNIVERSAL_TIME_OFFSET ( 1, 0, .AHEAD. ) ;
#136 = EDGE_CURVE ( 'NONE', #77, #77, #43, .T. ) ;
#137 = ORIENTED_EDGE ( 'NONE', *, *, #63, .T. ) ;
#138 = DIRECTION ( 'NONE',  ( 4.275831445896958607E-31, 1.000000000000000000, 1.224646799147353207E-16 ) ) ;
#139 = FACE_OUTER_BOUND ( 'NONE', #301, .T. ) ;
#140 = FACE_BOUND ( 'NONE', #296, .T. ) ;
#141 = CARTESIAN_POINT ( 'NONE',  ( 0.0000000000000000000, 0.0000000000000000000, 0.0000000000000000000 ) ) ;
#142 = ADVANCED_FACE ( 'NONE', ( #4 ), #260, .F. ) ;
#143 = CARTESIAN_POINT ( 'NONE',  ( 2.504511167915743751E-14, -8.784642641776459355E-16, 7.173205080756892116 ) ) ;
#144 = FACE_BOUND ( 'NONE', #59, .T. ) ;
#145 =( LENGTH_UNIT ( ) NAMED_UNIT ( * ) SI_UNIT ( .MILLI., .METRE. ) );
#146 = CC_DESIGN_SECURITY_CLASSIFICATION ( #236, ( #51 ) ) ;
#147 = CC_DESIGN_PERSON_AND_ORGANIZATION_ASSIGNMENT ( #243, #11, ( #51 ) ) ;
#148 = DIRECTION ( 'NONE',  ( -3.491481338843133355E-15, 1.224646799147353207E-16, -1.000000000000000000 ) ) ;
#149 = TOROIDAL_SURFACE ( 'NONE', #16, 2.774999999999999911, 2.000000000000000000 ) ;
#150 = DIRECTION ( 'NONE',  ( -3.491481338843133355E-15, 1.224646799147353207E-16, -1.000000000000000000 ) ) ;
#151 = CLOSED_SHELL ( 'NONE', ( #124, #170, #39, #291 ) ) ;
#152 = DATE_AND_TIME ( #245, #101 ) ;
#153 = ORIENTED_EDGE ( 'NONE', *, *, #55, .F. ) ;
#154 = DIRECTION ( 'NONE',  ( 0.0000000000000000000, 1.000000000000000000, 0.0000000000000000000 ) ) ;
#155 = DIRECTION ( 'NONE',  ( -4.275831445896958607E-31, -1.000000000000000000, -1.224646799147353207E-16 ) ) ;
#156 = EDGE_LOOP ( 'NONE', ( #299 ) ) ;
#157 = APPLICATION_CONTEXT ( 'configuration controlled 3d designs of mechanical parts and assemblies' ) ;
#158 = COORDINATED_UNIVERSAL_TIME_OFFSET ( 1, 0, .AHEAD. ) ;
#159 = PLANE ( 'NONE',  #205 ) ;
#160 = CIRCLE ( 'NONE', #184, 1.200000000000001732 ) ;
#161 = CC_DESIGN_APPROVAL ( #255, ( #51 ) ) ;
#162 = DIRECTION ( 'NONE',  ( 0.0000000000000000000, 1.000000000000000000, 0.0000000000000000000 ) ) ;
#163 = DIRECTION ( 'NONE',  ( -3.491481338843133355E-15, 1.224646799147353207E-16, -1.000000000000000000 ) ) ;
#164 = PRODUCT_DEFINITION_SHAPE ( 'NONE', 'NONE',  #263 ) ;
#165 = DIRECTION ( 'NONE',  ( -3.491481338843133355E-15, 1.224646799147353207E-16, -1.000000000000000000 ) ) ;
#166 = ADVANCED_FACE ( 'NONE', ( #144, #237 ), #281, .T. ) ;
#167 = CC_DESIGN_APPROVAL ( #113, ( #263 ) ) ;
#168 = DIRECTION ( 'NONE',  ( 3.491481338843133355E-15, -1.224646799147353207E-16, 1.000000000000000000 ) ) ;
#169 = AXIS2_PLACEMENT_3D ( 'NONE', #93, #28, #24 ) ;
#170 = ADVANCED_FACE ( 'NONE', ( #241, #32 ), #264, .T. ) ;
#171 = DATE_AND_TIME ( #36, #244 ) ;
#172 = AXIS2_PLACEMENT_3D ( 'NONE', #200, #178, #13 ) ;
#173 = APPROVAL_DATE_TIME ( #222, #255 ) ;
#174 = EDGE_LOOP ( 'NONE', ( #197 ) ) ;
#175 = DATE_AND_TIME ( #221, #293 ) ;
#176 = EDGE_LOOP ( 'NONE', ( #153 ) ) ;
#177 = ADVANCED_FACE ( 'NONE', ( #262, #302 ), #289, .T. ) ;
#178 = DIRECTION ( 'NONE',  ( 0.0000000000000000000, 0.0000000000000000000, 1.000000000000000000 ) ) ;
#179 = ORIENTED_EDGE ( 'NONE', *, *, #63, .F. ) ;
#180 = APPLICATION_PROTOCOL_DEFINITION ( 'international standard', 'config_control_design', 1994, #157 ) ;
#181 = CARTESIAN_POINT ( 'NONE',  ( 8.728703347107829444E-16, -3.061616997868381785E-17, 0.2499999999999998890 ) ) ;
#182 = ADVANCED_FACE ( 'NONE', ( #29, #122 ), #52, .T. ) ;
#183 = CYLINDRICAL_SURFACE ( 'NONE', #169, 0.7749999999999994671 ) ;
#184 = AXIS2_PLACEMENT_3D ( 'NONE', #115, #271, #154 ) ;
#185 = FACE_OUTER_BOUND ( 'NONE', #270, .T. ) ;
#186 =( NAMED_UNIT ( * ) SI_UNIT ( $, .STERADIAN. ) SOLID_ANGLE_UNIT ( ) );
#187 = DIRECTION ( 'NONE',  ( 3.491481338843133355E-15, -1.224646799147353207E-16, 1.000000000000000000 ) ) ;
#188 = CARTESIAN_POINT ( 'NONE',  ( 2.444036937190193349E-14, -8.572527594031473190E-16, 7.000000000000000000 ) ) ;
#189 = VERTEX_POINT ( 'NONE', #95 ) ;
#190 = CARTESIAN_POINT ( 'NONE',  ( 6.056776150402961829E-14, 0.8053844939755788745, 17.34729635533384240 ) ) ;
#191 = APPROVAL ( #295, 'UNSPECIFIED' ) ;
#192 = AXIS2_PLACEMENT_3D ( 'NONE', #141, #48, #209 ) ;
#193 = CARTESIAN_POINT ( 'NONE',  ( -1.892735826383160481E-31, 0.7306624327025945664, -5.421010862427520937E-17 ) ) ;
#194 = CC_DESIGN_PERSON_AND_ORGANIZATION_ASSIGNMENT ( #196, #79, ( #51 ) ) ;
#195 = CALENDAR_DATE ( 2021, 1, 12 ) ;
#196 = PERSON_AND_ORGANIZATION ( #216, #231 ) ;
#197 = ORIENTED_EDGE ( 'NONE', *, *, #66, .T. ) ;
#198 = ADVANCED_BREP_SHAPE_REPRESENTATION ( '200694', ( #30, #134, #172 ), #58 ) ;
#199 = ORIENTED_EDGE ( 'NONE', *, *, #49, .T. ) ;
#200 = CARTESIAN_POINT ( 'NONE',  ( 0.0000000000000000000, 0.0000000000000000000, 0.0000000000000000000 ) ) ;
#201 = ORIENTED_EDGE ( 'NONE', *, *, #66, .F. ) ;
#202 = DIRECTION ( 'NONE',  ( 3.491481338843133355E-15, -1.224646799147353207E-16, 1.000000000000000000 ) ) ;
#203 = DIRECTION ( 'NONE',  ( -4.402125587170829311E-31, -1.000000000000000000, -1.239088197126292050E-16 ) ) ;
#204 = DATE_TIME_ROLE ( 'creation_date' ) ;
#205 = AXIS2_PLACEMENT_3D ( 'NONE', #254, #14, #155 ) ;
#206 = APPROVAL_PERSON_ORGANIZATION ( #35, #255, #290 ) ;
#207 = EDGE_CURVE ( 'NONE', #127, #127, #1, .T. ) ;
#208 = DIRECTION ( 'NONE',  ( 4.275831445896958607E-31, 1.000000000000000000, 1.224646799147353207E-16 ) ) ;
#209 = DIRECTION ( 'NONE',  ( 4.275831445896958607E-31, 1.000000000000000000, 1.224646799147353207E-16 ) ) ;
#210 = CIRCLE ( 'NONE', #67, 0.8750000000000000000 ) ;
#211 = DIRECTION ( 'NONE',  ( 0.0000000000000000000, 1.000000000000000000, 0.0000000000000000000 ) ) ;
#212 = FACE_OUTER_BOUND ( 'NONE', #132, .T. ) ;
#213 = CARTESIAN_POINT ( 'NONE',  ( 0.0000000000000000000, 0.0000000000000000000, 0.0000000000000000000 ) ) ;
#214 = CARTESIAN_POINT ( 'NONE',  ( 7.432196444682971675E-14, -2.606863592640919811E-15, 21.28665664627482812 ) ) ;
#215 = AXIS2_PLACEMENT_3D ( 'NONE', #213, #148, #238 ) ;
#216 = PERSON ( 'UNSPECIFIED', 'UNSPECIFIED', 'UNSPECIFIED', ('UNSPECIFIED'), ('UNSPECIFIED'), ('UNSPECIFIED') ) ;
#217 = CC_DESIGN_APPROVAL ( #191, ( #236 ) ) ;
#218 = VERTEX_POINT ( 'NONE', #190 ) ;
#219 = CARTESIAN_POINT ( 'NONE',  ( 2.504511167915743751E-14, 0.7749999999999980238, 7.173205080756892116 ) ) ;
#220 = FACE_OUTER_BOUND ( 'NONE', #176, .T. ) ;
#221 = CALENDAR_DATE ( 2021, 1, 12 ) ;
#222 = DATE_AND_TIME ( #105, #120 ) ;
#223 = ORIENTED_EDGE ( 'NONE', *, *, #278, .F. ) ;
#224 = APPROVAL_STATUS ( 'not_yet_approved' ) ;
#225 = ORIENTED_EDGE ( 'NONE', *, *, #234, .F. ) ;
#226 = DIRECTION ( 'NONE',  ( -4.275831445896958607E-31, -1.000000000000000000, -1.224646799147353207E-16 ) ) ;
#227 = SHAPE_DEFINITION_REPRESENTATION ( #164, #198 ) ;
#228 = ORIENTED_EDGE ( 'NONE', *, *, #136, .F. ) ;
#229 = AXIS2_PLACEMENT_3D ( 'NONE', #261, #68, #208 ) ;
#230 = DIRECTION ( 'NONE',  ( 3.491481338843133355E-15, -1.224646799147353207E-16, 1.000000000000000000 ) ) ;
#231 = ORGANIZATION ( 'UNSPECIFIED', 'UNSPECIFIED', '' ) ;
#232 = DIRECTION ( 'NONE',  ( -3.491481338843133355E-15, 1.224646799147353207E-16, -1.000000000000000000 ) ) ;
#233 = FACE_OUTER_BOUND ( 'NONE', #107, .T. ) ;
#234 = EDGE_CURVE ( 'NONE', #123, #123, #256, .T. ) ;
#235 = DIRECTION ( 'NONE',  ( -3.491481338843133355E-15, 1.224646799147353207E-16, -1.000000000000000000 ) ) ;
#236 = SECURITY_CLASSIFICATION ( '', '', #268 ) ;
#237 = FACE_OUTER_BOUND ( 'NONE', #276, .T. ) ;
#238 = DIRECTION ( 'NONE',  ( 4.275831445896958607E-31, 1.000000000000000000, 1.224646799147353454E-16 ) ) ;
#239 = PRODUCT ( '200694', '200694', '', ( #22 ) ) ;
#240 = CC_DESIGN_DATE_AND_TIME_ASSIGNMENT ( #152, #204, ( #263 ) ) ;
#241 = FACE_BOUND ( 'NONE', #156, .T. ) ;
#242 = CLOSED_SHELL ( 'NONE', ( #2, #177, #12, #248, #166, #182, #74, #142 ) ) ;
#243 = PERSON_AND_ORGANIZATION ( #216, #231 ) ;
#244 = LOCAL_TIME ( 15, 3, 32.00000000000000000, #298 ) ;
#245 = CALENDAR_DATE ( 2021, 1, 12 ) ;
#246 = APPROVAL_ROLE ( '' ) ;
#247 = ORIENTED_EDGE ( 'NONE', *, *, #207, .F. ) ;
#248 = ADVANCED_FACE ( 'NONE', ( #220, #139 ), #149, .F. ) ;
#249 = PLANE ( 'NONE',  #76 ) ;
#250 = AXIS2_PLACEMENT_3D ( 'NONE', #27, #187, #303 ) ;
#251 = FACE_OUTER_BOUND ( 'NONE', #37, .T. ) ;
#252 = EDGE_LOOP ( 'NONE', ( #17 ) ) ;
#253 = DATE_TIME_ROLE ( 'classification_date' ) ;
#254 = CARTESIAN_POINT ( 'NONE',  ( 2.444036937190193349E-14, 6.561449049145614718E-33, 7.000000000000000000 ) ) ;
#255 = APPROVAL ( #130, 'UNSPECIFIED' ) ;
#256 = CIRCLE ( 'NONE', #125, 0.8749999999999991118 ) ;
#257 = DIRECTION ( 'NONE',  ( 0.0000000000000000000, 1.000000000000000000, 0.0000000000000000000 ) ) ;
#258 = CARTESIAN_POINT ( 'NONE',  ( 1.745740669421566678E-13, -6.123233995736766085E-15, 50.00000000000000000 ) ) ;
#259 = DESIGN_CONTEXT ( 'detailed design', #102, 'design' ) ;
#260 = PLANE ( 'NONE',  #284 ) ;
#261 = CARTESIAN_POINT ( 'NONE',  ( -5.016925232468484741E-31, 1.759700491350716956E-32, -1.436904495709203030E-16 ) ) ;
#262 = FACE_OUTER_BOUND ( 'NONE', #15, .T. ) ;
#263 = PRODUCT_DEFINITION ( 'UNKNOWN', '', #51, #259 ) ;
#264 = CONICAL_SURFACE ( 'NONE', #33, 0.8749999999999991118, 0.5235987755982932645 ) ;
#265 = CC_DESIGN_PERSON_AND_ORGANIZATION_ASSIGNMENT ( #269, #104, ( #236 ) ) ;
#266 = DIRECTION ( 'NONE',  ( 0.0000000000000000000, 1.000000000000000000, 0.0000000000000000000 ) ) ;
#267 = CARTESIAN_POINT ( 'NONE',  ( 1.735266225405037467E-13, 1.499999999999995559, 49.70000000000000284 ) ) ;
#268 = SECURITY_CLASSIFICATION_LEVEL ( 'unclassified' ) ;
#269 = PERSON_AND_ORGANIZATION ( #216, #231 ) ;
#270 = EDGE_LOOP ( 'NONE', ( #199 ) ) ;
#271 = DIRECTION ( 'NONE',  ( -3.491481338843133355E-15, 1.224646799147353207E-16, -1.000000000000000000 ) ) ;
#272 = PERSON_AND_ORGANIZATION ( #216, #231 ) ;
#273 = EDGE_LOOP ( 'NONE', ( #247 ) ) ;
#274 = FACE_OUTER_BOUND ( 'NONE', #18, .T. ) ;
#275 = PERSON_AND_ORGANIZATION ( #216, #231 ) ;
#276 = EDGE_LOOP ( 'NONE', ( #133 ) ) ;
#277 = DIRECTION ( 'NONE',  ( -3.491481338843133355E-15, 1.224646799147353207E-16, -1.000000000000000000 ) ) ;
#278 = EDGE_CURVE ( 'NONE', #189, #189, #160, .T. ) ;
#279 = APPROVAL_DATE_TIME ( #175, #113 ) ;
#280 = DIRECTION ( 'NONE',  ( -3.491481338843133355E-15, 1.224646799147353207E-16, -1.000000000000000000 ) ) ;
#281 = CONICAL_SURFACE ( 'NONE', #92, 1.499999999999996669, 0.1745329251994260367 ) ;
#282 = CARTESIAN_POINT ( 'NONE',  ( 5.935518276033326704E-14, -2.081899558550500280E-15, 17.00000000000000000 ) ) ;
#283 = DIRECTION ( 'NONE',  ( 0.0000000000000000000, 1.000000000000000000, 0.0000000000000000000 ) ) ;
#284 = AXIS2_PLACEMENT_3D ( 'NONE', #71, #117, #97 ) ;
#285 = CARTESIAN_POINT ( 'NONE',  ( 5.935518276033326704E-14, 0.7749999999999979128, 17.00000000000000000 ) ) ;
#286 = CC_DESIGN_PERSON_AND_ORGANIZATION_ASSIGNMENT ( #129, #110, ( #239 ) ) ;
#287 = AXIS2_PLACEMENT_3D ( 'NONE', #70, #3, #162 ) ;
#288 = APPROVAL_ROLE ( '' ) ;
#289 = CONICAL_SURFACE ( 'NONE', #131, 0.7749999999999989120, 0.5235987755982938197 ) ;
#290 = APPROVAL_ROLE ( '' ) ;
#291 = ADVANCED_FACE ( 'NONE', ( #274 ), #249, .T. ) ;
#292 = ORIENTED_EDGE ( 'NONE', *, *, #278, .T. ) ;
#293 = LOCAL_TIME ( 15, 3, 32.00000000000000000, #108 ) ;
#294 = CARTESIAN_POINT ( 'NONE',  ( 8.728703347107829444E-16, -3.061616997868381785E-17, 0.2499999999999998890 ) ) ;
#295 = APPROVAL_STATUS ( 'not_yet_approved' ) ;
#296 = EDGE_LOOP ( 'NONE', ( #292 ) ) ;
#297 = VERTEX_POINT ( 'NONE', #285 ) ;
#298 = COORDINATED_UNIVERSAL_TIME_OFFSET ( 1, 0, .AHEAD. ) ;
#299 = ORIENTED_EDGE ( 'NONE', *, *, #78, .F. ) ;
#300 = PRODUCT_RELATED_PRODUCT_CATEGORY ( 'detail', '', ( #239 ) ) ;
#301 = EDGE_LOOP ( 'NONE', ( #61 ) ) ;
#302 = FACE_BOUND ( 'NONE', #96, .T. ) ;
#303 = DIRECTION ( 'NONE',  ( -4.275831445896958607E-31, -1.000000000000000000, -1.224646799147353207E-16 ) ) ;
ENDSEC;
END-ISO-10303-21;
