ISO-10303-21;
HEADER;
FILE_DESCRIPTION (( 'STEP AP203' ),
    '1' );
FILE_NAME ('200693.step',
    '2021-12-01T14:03:31',
    ( '' ),
    ( '' ),
    'SwSTEP 2.0',
    'SolidWorks 2019',
    '' );
FILE_SCHEMA (( 'CONFIG_CONTROL_DESIGN' ));
ENDSEC;

DATA;
#1 = CIRCLE ( 'NONE', #104, 1.500000000000001554 ) ;
#2 = PRODUCT_RELATED_PRODUCT_CATEGORY ( 'detail', '', ( #163 ) ) ;
#3 = FACE_OUTER_BOUND ( 'NONE', #272, .T. ) ;
#4 = PLANE ( 'NONE',  #40 ) ;
#5 = PERSON_AND_ORGANIZATION ( #158, #67 ) ;
#6 = CC_DESIGN_APPROVAL ( #66, ( #151 ) ) ;
#7 = DIRECTION ( 'NONE',  ( -4.531599869146441783E-31, -1.000000000000000000, -1.275531967630006478E-16 ) ) ;
#8 = APPROVAL_ROLE ( '' ) ;
#9 = CARTESIAN_POINT ( 'NONE',  ( 2.444036937190193349E-14, 0.8499999999999990896, 7.000000000000000000 ) ) ;
#10 = DIRECTION ( 'NONE',  ( -3.491481338843133355E-15, 1.224646799147353207E-16, -1.000000000000000000 ) ) ;
#11 = VERTEX_POINT ( 'NONE', #79 ) ;
#12 = AXIS2_PLACEMENT_3D ( 'NONE', #49, #121, #7 ) ;
#13 = CARTESIAN_POINT ( 'NONE',  ( -2.455014723160531023E-31, 8.611032483920853947E-33, -7.031441628652595723E-17 ) ) ;
#14 = ORIENTED_EDGE ( 'NONE', *, *, #134, .T. ) ;
#15 = CARTESIAN_POINT ( 'NONE',  ( 2.444036937190193349E-14, 0.8499999999999990896, 7.000000000000000000 ) ) ;
#16 = ADVANCED_FACE ( 'NONE', ( #227, #38 ), #36, .F. ) ;
#17 = EDGE_LOOP ( 'NONE', ( #144 ) ) ;
#18 = CIRCLE ( 'NONE', #169, 0.8499999999999999778 ) ;
#19 = ORIENTED_EDGE ( 'NONE', *, *, #76, .F. ) ;
#20 = MECHANICAL_CONTEXT ( 'NONE', #37, 'mechanical' ) ;
#21 = CARTESIAN_POINT ( 'NONE',  ( 7.132551247399949243E-14, -2.501762205544828606E-15, 20.42843869176527249 ) ) ;
#22 = FACE_OUTER_BOUND ( 'NONE', #294, .T. ) ;
#23 = DATE_AND_TIME ( #119, #91 ) ;
#24 = CARTESIAN_POINT ( 'NONE',  ( 2.444036937190193349E-14, 6.373979076312882517E-33, 7.000000000000000000 ) ) ;
#25 = ORIENTED_EDGE ( 'NONE', *, *, #76, .T. ) ;
#26 = DATE_TIME_ROLE ( 'creation_date' ) ;
#27 = FACE_OUTER_BOUND ( 'NONE', #48, .T. ) ;
#28 = APPROVAL_DATE_TIME ( #44, #66 ) ;
#29 = PLANE ( 'NONE',  #135 ) ;
#30 = ADVANCED_FACE ( 'NONE', ( #142 ), #276, .F. ) ;
#31 = CYLINDRICAL_SURFACE ( 'NONE', #45, 0.7499999999999995559 ) ;
#32 = AXIS2_PLACEMENT_3D ( 'NONE', #35, #10, #145 ) ;
#33 = ORIENTED_EDGE ( 'NONE', *, *, #159, .F. ) ;
#34 =( LENGTH_UNIT ( ) NAMED_UNIT ( * ) SI_UNIT ( .MILLI., .METRE. ) );
#35 = CARTESIAN_POINT ( 'NONE',  ( 1.745740669421566678E-13, -6.123233995736766085E-15, 50.00000000000000000 ) ) ;
#36 = TOROIDAL_SURFACE ( 'NONE', #141, 2.750000000000000444, 2.000000000000000444 ) ;
#37 = APPLICATION_CONTEXT ( 'configuration controlled 3d designs of mechanical parts and assemblies' ) ;
#38 = FACE_OUTER_BOUND ( 'NONE', #56, .T. ) ;
#39 = ORIENTED_EDGE ( 'NONE', *, *, #84, .T. ) ;
#40 = AXIS2_PLACEMENT_3D ( 'NONE', #52, #240, #171 ) ;
#41 = ORIENTED_EDGE ( 'NONE', *, *, #84, .F. ) ;
#42 = VERTEX_POINT ( 'NONE', #206 ) ;
#43 = CARTESIAN_POINT ( 'NONE',  ( 5.586370142149013368E-14, -2.168404344971008868E-15, 16.00000000000000000 ) ) ;
#44 = DATE_AND_TIME ( #301, #292 ) ;
#45 = AXIS2_PLACEMENT_3D ( 'NONE', #131, #219, #55 ) ;
#46 = DIRECTION ( 'NONE',  ( -3.491481338843133355E-15, 1.224646799147353207E-16, -1.000000000000000000 ) ) ;
#47 = CC_DESIGN_PERSON_AND_ORGANIZATION_ASSIGNMENT ( #92, #248, ( #163 ) ) ;
#48 = EDGE_LOOP ( 'NONE', ( #114 ) ) ;
#49 = CARTESIAN_POINT ( 'NONE',  ( 8.728703347107831416E-16, -3.061616997868382402E-17, 0.2499999999999999445 ) ) ;
#50 = ORIENTED_EDGE ( 'NONE', *, *, #108, .F. ) ;
#51 = COORDINATED_UNIVERSAL_TIME_OFFSET ( 1, 0, .AHEAD. ) ;
#52 = CARTESIAN_POINT ( 'NONE',  ( 1.745740669421566678E-13, 8.998558695971067645E-33, 50.00000000000000000 ) ) ;
#53 = CARTESIAN_POINT ( 'NONE',  ( 1.735266225405037467E-13, -6.086494591762345225E-15, 49.70000000000000284 ) ) ;
#54 = DATE_AND_TIME ( #261, #83 ) ;
#55 = DIRECTION ( 'NONE',  ( 4.275831445896958607E-31, 1.000000000000000000, 1.224646799147353454E-16 ) ) ;
#56 = EDGE_LOOP ( 'NONE', ( #111 ) ) ;
#57 = AXIS2_PLACEMENT_3D ( 'NONE', #154, #242, #69 ) ;
#58 = FACE_OUTER_BOUND ( 'NONE', #100, .T. ) ;
#59 = CC_DESIGN_DATE_AND_TIME_ASSIGNMENT ( #54, #152, ( #190 ) ) ;
#60 = AXIS2_PLACEMENT_3D ( 'NONE', #125, #197, #225 ) ;
#61 = EDGE_LOOP ( 'NONE', ( #299 ) ) ;
#62 = ORIENTED_EDGE ( 'NONE', *, *, #159, .T. ) ;
#63 = AXIS2_PLACEMENT_3D ( 'NONE', #21, #273, #120 ) ;
#64 = DIRECTION ( 'NONE',  ( 4.275831445896957731E-31, 1.000000000000000000, 1.224646799147353207E-16 ) ) ;
#65 = DIRECTION ( 'NONE',  ( -4.275831445896958607E-31, -1.000000000000000000, -1.224646799147353207E-16 ) ) ;
#66 = APPROVAL ( #173, 'UNSPECIFIED' ) ;
#67 = ORGANIZATION ( 'UNSPECIFIED', 'UNSPECIFIED', '' ) ;
#68 = CIRCLE ( 'NONE', #97, 1.200000000000001732 ) ;
#69 = DIRECTION ( 'NONE',  ( 0.0000000000000000000, 1.000000000000000000, 0.0000000000000000000 ) ) ;
#70 = PERSON_AND_ORGANIZATION ( #158, #67 ) ;
#71 = DIRECTION ( 'NONE',  ( -3.491481338843133355E-15, 1.224646799147353207E-16, -1.000000000000000000 ) ) ;
#72 = DIRECTION ( 'NONE',  ( -4.275831445896958607E-31, -1.000000000000000000, -1.224646799147353207E-16 ) ) ;
#73 = COORDINATED_UNIVERSAL_TIME_OFFSET ( 1, 0, .AHEAD. ) ;
#74 = CLOSED_SHELL ( 'NONE', ( #112, #246, #224, #16, #136, #186, #267, #89 ) ) ;
#75 = MANIFOLD_SOLID_BREP ( 'Corps-Déplacer/Copier1[2]', #222 ) ;
#76 = EDGE_CURVE ( 'NONE', #165, #165, #68, .T. ) ;
#77 = VERTEX_POINT ( 'NONE', #137 ) ;
#78 = AXIS2_PLACEMENT_3D ( 'NONE', #211, #303, #260 ) ;
#79 = CARTESIAN_POINT ( 'NONE',  ( 2.504511167915743751E-14, 0.7499999999999982236, 7.173205080756892116 ) ) ;
#80 = EDGE_CURVE ( 'NONE', #231, #231, #208, .T. ) ;
#81 = AXIS2_PLACEMENT_3D ( 'NONE', #101, #200, #124 ) ;
#82 = ORIENTED_EDGE ( 'NONE', *, *, #134, .F. ) ;
#83 = LOCAL_TIME ( 15, 3, 31.00000000000000000, #289 ) ;
#84 = EDGE_CURVE ( 'NONE', #297, #297, #1, .T. ) ;
#85 = EDGE_LOOP ( 'NONE', ( #143 ) ) ;
#86 = VERTEX_POINT ( 'NONE', #295 ) ;
#87 = CARTESIAN_POINT ( 'NONE',  ( 2.444036937190193349E-14, -8.572527594031473190E-16, 7.000000000000000000 ) ) ;
#88 = ORIENTED_EDGE ( 'NONE', *, *, #209, .F. ) ;
#89 = ADVANCED_FACE ( 'NONE', ( #236 ), #4, .F. ) ;
#90 = CARTESIAN_POINT ( 'NONE',  ( 1.745740669421566678E-13, -6.123233995736766085E-15, 50.00000000000000000 ) ) ;
#91 = LOCAL_TIME ( 15, 3, 31.00000000000000000, #51 ) ;
#92 = PERSON_AND_ORGANIZATION ( #158, #67 ) ;
#93 = CALENDAR_DATE ( 2021, 1, 12 ) ;
#94 = DIRECTION ( 'NONE',  ( 0.0000000000000000000, 1.000000000000000000, 0.0000000000000000000 ) ) ;
#95 = FACE_OUTER_BOUND ( 'NONE', #253, .T. ) ;
#96 = EDGE_LOOP ( 'NONE', ( #82 ) ) ;
#97 = AXIS2_PLACEMENT_3D ( 'NONE', #90, #191, #167 ) ;
#98 = FACE_OUTER_BOUND ( 'NONE', #274, .T. ) ;
#99 = CC_DESIGN_PERSON_AND_ORGANIZATION_ASSIGNMENT ( #188, #146, ( #151 ) ) ;
#100 = EDGE_LOOP ( 'NONE', ( #41 ) ) ;
#101 = CARTESIAN_POINT ( 'NONE',  ( 0.0000000000000000000, 0.0000000000000000000, 0.0000000000000000000 ) ) ;
#102 = COORDINATED_UNIVERSAL_TIME_OFFSET ( 1, 0, .AHEAD. ) ;
#103 = PLANE ( 'NONE',  #194 ) ;
#104 = AXIS2_PLACEMENT_3D ( 'NONE', #53, #71, #128 ) ;
#105 = DIRECTION ( 'NONE',  ( -3.491481338843133355E-15, 1.224646799147353207E-16, -1.000000000000000000 ) ) ;
#106 = ADVANCED_FACE ( 'NONE', ( #153, #148 ), #270, .T. ) ;
#107 =( NAMED_UNIT ( * ) SI_UNIT ( $, .STERADIAN. ) SOLID_ANGLE_UNIT ( ) );
#108 = EDGE_CURVE ( 'NONE', #42, #42, #229, .T. ) ;
#109 = APPROVAL_PERSON_ORGANIZATION ( #70, #66, #256 ) ;
#110 = AXIS2_PLACEMENT_3D ( 'NONE', #207, #105, #179 ) ;
#111 = ORIENTED_EDGE ( 'NONE', *, *, #108, .T. ) ;
#112 = ADVANCED_FACE ( 'NONE', ( #27 ), #29, .F. ) ;
#113 = EDGE_LOOP ( 'NONE', ( #62 ) ) ;
#114 = ORIENTED_EDGE ( 'NONE', *, *, #80, .T. ) ;
#115 = CONICAL_SURFACE ( 'NONE', #110, 0.7499999999999990008, 0.5235987755982929315 ) ;
#116 = APPROVAL ( #149, 'UNSPECIFIED' ) ;
#117 = CARTESIAN_POINT ( 'NONE',  ( 2.504511167915743751E-14, -8.784642641776459355E-16, 7.173205080756892116 ) ) ;
#118 = DIRECTION ( 'NONE',  ( -3.491481338843133355E-15, 1.224646799147353207E-16, -1.000000000000000000 ) ) ;
#119 = CALENDAR_DATE ( 2021, 1, 12 ) ;
#120 = DIRECTION ( 'NONE',  ( 0.0000000000000000000, 1.000000000000000000, 0.0000000000000000000 ) ) ;
#121 = DIRECTION ( 'NONE',  ( 3.491481338843133355E-15, -1.224646799147353207E-16, 1.000000000000000000 ) ) ;
#122 = LOCAL_TIME ( 15, 3, 31.00000000000000000, #73 ) ;
#123 = COORDINATED_UNIVERSAL_TIME_OFFSET ( 1, 0, .AHEAD. ) ;
#124 = DIRECTION ( 'NONE',  ( 4.275831445896958607E-31, 1.000000000000000000, 1.224646799147352961E-16 ) ) ;
#125 = CARTESIAN_POINT ( 'NONE',  ( 0.0000000000000000000, 0.0000000000000000000, 0.0000000000000000000 ) ) ;
#126 = EDGE_LOOP ( 'NONE', ( #25 ) ) ;
#127 = SHAPE_DEFINITION_REPRESENTATION ( #139, #204 ) ;
#128 = DIRECTION ( 'NONE',  ( 0.0000000000000000000, 1.000000000000000000, 0.0000000000000000000 ) ) ;
#129 = DATE_AND_TIME ( #195, #282 ) ;
#130 = FACE_BOUND ( 'NONE', #201, .T. ) ;
#131 = CARTESIAN_POINT ( 'NONE',  ( 0.0000000000000000000, 0.0000000000000000000, 0.0000000000000000000 ) ) ;
#132 = APPROVAL_STATUS ( 'not_yet_approved' ) ;
#133 =( GEOMETRIC_REPRESENTATION_CONTEXT ( 3 ) GLOBAL_UNCERTAINTY_ASSIGNED_CONTEXT ( ( #181 ) ) GLOBAL_UNIT_ASSIGNED_CONTEXT ( ( #34, #223, #107 ) ) REPRESENTATION_CONTEXT ( 'NONE', 'WORKASPACE' ) );
#134 = EDGE_CURVE ( 'NONE', #86, #86, #245, .T. ) ;
#135 = AXIS2_PLACEMENT_3D ( 'NONE', #218, #213, #72 ) ;
#136 = ADVANCED_FACE ( 'NONE', ( #130, #22 ), #214, .T. ) ;
#137 = CARTESIAN_POINT ( 'NONE',  ( 7.132551247399949243E-14, 1.499999999999994005, 20.42843869176527249 ) ) ;
#138 = VERTEX_POINT ( 'NONE', #268 ) ;
#139 = PRODUCT_DEFINITION_SHAPE ( 'NONE', 'NONE',  #192 ) ;
#140 = ADVANCED_FACE ( 'NONE', ( #198 ), #103, .T. ) ;
#141 = AXIS2_PLACEMENT_3D ( 'NONE', #43, #118, #64 ) ;
#142 = FACE_OUTER_BOUND ( 'NONE', #61, .T. ) ;
#143 = ORIENTED_EDGE ( 'NONE', *, *, #279, .F. ) ;
#144 = ORIENTED_EDGE ( 'NONE', *, *, #178, .F. ) ;
#145 = DIRECTION ( 'NONE',  ( 0.0000000000000000000, 1.000000000000000000, 0.0000000000000000000 ) ) ;
#146 = PERSON_AND_ORGANIZATION_ROLE ( 'design_supplier' ) ;
#147 = DIRECTION ( 'NONE',  ( 0.0000000000000000000, 1.000000000000000000, 0.0000000000000000000 ) ) ;
#148 = FACE_OUTER_BOUND ( 'NONE', #113, .T. ) ;
#149 = APPROVAL_STATUS ( 'not_yet_approved' ) ;
#150 = DIRECTION ( 'NONE',  ( 3.491481338843133355E-15, -1.224646799147353207E-16, 1.000000000000000000 ) ) ;
#151 = PRODUCT_DEFINITION_FORMATION_WITH_SPECIFIED_SOURCE ( 'ANY', '', #163, .NOT_KNOWN. ) ;
#152 = DATE_TIME_ROLE ( 'classification_date' ) ;
#153 = FACE_BOUND ( 'NONE', #17, .T. ) ;
#154 = CARTESIAN_POINT ( 'NONE',  ( 5.707628016518648493E-14, -2.001966415627278844E-15, 16.34729635533384595 ) ) ;
#155 = APPLICATION_PROTOCOL_DEFINITION ( 'international standard', 'config_control_design', 1994, #37 ) ;
#156 = ADVANCED_FACE ( 'NONE', ( #215, #95 ), #287, .T. ) ;
#157 = FACE_OUTER_BOUND ( 'NONE', #85, .T. ) ;
#158 = PERSON ( 'UNSPECIFIED', 'UNSPECIFIED', 'UNSPECIFIED', ('UNSPECIFIED'), ('UNSPECIFIED'), ('UNSPECIFIED') ) ;
#159 = EDGE_CURVE ( 'NONE', #138, #138, #233, .T. ) ;
#160 = VERTEX_POINT ( 'NONE', #226 ) ;
#161 = AXIS2_PLACEMENT_3D ( 'NONE', #258, #46, #174 ) ;
#162 = DESIGN_CONTEXT ( 'detailed design', #212, 'design' ) ;
#163 = PRODUCT ( '200693', '200693', '', ( #20 ) ) ;
#164 = EDGE_LOOP ( 'NONE', ( #33 ) ) ;
#165 = VERTEX_POINT ( 'NONE', #250 ) ;
#166 = CIRCLE ( 'NONE', #63, 1.499999999999996669 ) ;
#167 = DIRECTION ( 'NONE',  ( 0.0000000000000000000, 1.000000000000000000, 0.0000000000000000000 ) ) ;
#168 = DIRECTION ( 'NONE',  ( 0.0000000000000000000, 1.000000000000000000, 0.0000000000000000000 ) ) ;
#169 = AXIS2_PLACEMENT_3D ( 'NONE', #87, #302, #94 ) ;
#170 = PERSON_AND_ORGANIZATION_ROLE ( 'classification_officer' ) ;
#171 = DIRECTION ( 'NONE',  ( 4.275831445896958607E-31, 1.000000000000000000, 1.224646799147353207E-16 ) ) ;
#172 = CC_DESIGN_PERSON_AND_ORGANIZATION_ASSIGNMENT ( #5, #170, ( #190 ) ) ;
#173 = APPROVAL_STATUS ( 'not_yet_approved' ) ;
#174 = DIRECTION ( 'NONE',  ( 0.0000000000000000000, 1.000000000000000000, 0.0000000000000000000 ) ) ;
#175 = DIRECTION ( 'NONE',  ( 4.275831445896958607E-31, 1.000000000000000000, 1.224646799147353454E-16 ) ) ;
#176 = AXIS2_PLACEMENT_3D ( 'NONE', #252, #283, #168 ) ;
#177 = SECURITY_CLASSIFICATION_LEVEL ( 'unclassified' ) ;
#178 = EDGE_CURVE ( 'NONE', #160, #160, #257, .T. ) ;
#179 = DIRECTION ( 'NONE',  ( 0.0000000000000000000, 1.000000000000000000, 0.0000000000000000000 ) ) ;
#180 = AXIS2_PLACEMENT_3D ( 'NONE', #13, #254, #65 ) ;
#181 = UNCERTAINTY_MEASURE_WITH_UNIT (LENGTH_MEASURE( 1.000000000000000082E-05 ), #34, 'distance_accuracy_value', 'NONE');
#182 = MANIFOLD_SOLID_BREP ( 'Corps-Déplacer/Copier1[1]', #74 ) ;
#183 = AXIS2_PLACEMENT_3D ( 'NONE', #288, #238, #175 ) ;
#184 = EDGE_LOOP ( 'NONE', ( #230 ) ) ;
#185 = EDGE_LOOP ( 'NONE', ( #296 ) ) ;
#186 = ADVANCED_FACE ( 'NONE', ( #3, #98 ), #262, .T. ) ;
#187 = EDGE_LOOP ( 'NONE', ( #19 ) ) ;
#188 = PERSON_AND_ORGANIZATION ( #158, #67 ) ;
#189 = DIRECTION ( 'NONE',  ( 4.275831445896958607E-31, 1.000000000000000000, 1.224646799147353454E-16 ) ) ;
#190 = SECURITY_CLASSIFICATION ( '', '', #177 ) ;
#191 = DIRECTION ( 'NONE',  ( -3.491481338843133355E-15, 1.224646799147353207E-16, -1.000000000000000000 ) ) ;
#192 = PRODUCT_DEFINITION ( 'UNKNOWN', '', #151, #162 ) ;
#193 = CARTESIAN_POINT ( 'NONE',  ( 8.728703347107831416E-16, -3.061616997868382402E-17, 0.2499999999999999445 ) ) ;
#194 = AXIS2_PLACEMENT_3D ( 'NONE', #24, #150, #196 ) ;
#195 = CALENDAR_DATE ( 2021, 1, 12 ) ;
#196 = DIRECTION ( 'NONE',  ( -4.275831445896958607E-31, -1.000000000000000000, -1.224646799147353207E-16 ) ) ;
#197 = DIRECTION ( 'NONE',  ( 0.0000000000000000000, 0.0000000000000000000, 1.000000000000000000 ) ) ;
#198 = FACE_OUTER_BOUND ( 'NONE', #228, .T. ) ;
#199 = PERSON_AND_ORGANIZATION ( #158, #67 ) ;
#200 = DIRECTION ( 'NONE',  ( -3.491481338843133355E-15, 1.224646799147353207E-16, -1.000000000000000000 ) ) ;
#201 = EDGE_LOOP ( 'NONE', ( #50 ) ) ;
#202 = AXIS2_PLACEMENT_3D ( 'NONE', #235, #265, #189 ) ;
#203 = VERTEX_POINT ( 'NONE', #9 ) ;
#204 = ADVANCED_BREP_SHAPE_REPRESENTATION ( '200693', ( #182, #75, #60 ), #133 ) ;
#205 = CIRCLE ( 'NONE', #284, 0.7499999999999990008 ) ;
#206 = CARTESIAN_POINT ( 'NONE',  ( 5.707628016518648493E-14, 0.7803844939755786303, 16.34729635533384595 ) ) ;
#207 = CARTESIAN_POINT ( 'NONE',  ( 2.504511167915743751E-14, -8.784642641776459355E-16, 7.173205080756892116 ) ) ;
#208 = CIRCLE ( 'NONE', #176, 0.8499999999999999778 ) ;
#209 = EDGE_CURVE ( 'NONE', #203, #203, #18, .T. ) ;
#210 = CC_DESIGN_SECURITY_CLASSIFICATION ( #190, ( #151 ) ) ;
#211 = CARTESIAN_POINT ( 'NONE',  ( 7.132551247399949243E-14, -2.501762205544828606E-15, 20.42843869176527249 ) ) ;
#212 = APPLICATION_CONTEXT ( 'configuration controlled 3d designs of mechanical parts and assemblies' ) ;
#213 = DIRECTION ( 'NONE',  ( 3.491481338843133355E-15, -1.224646799147353207E-16, 1.000000000000000000 ) ) ;
#214 = CONICAL_SURFACE ( 'NONE', #78, 1.499999999999996669, 0.1745329251994263142 ) ;
#215 = FACE_OUTER_BOUND ( 'NONE', #164, .T. ) ;
#216 = PERSON_AND_ORGANIZATION_ROLE ( 'creator' ) ;
#217 = CC_DESIGN_APPROVAL ( #255, ( #192 ) ) ;
#218 = CARTESIAN_POINT ( 'NONE',  ( 2.444036937190193349E-14, 6.373979076312882517E-33, 7.000000000000000000 ) ) ;
#219 = DIRECTION ( 'NONE',  ( -3.491481338843133355E-15, 1.224646799147353207E-16, -1.000000000000000000 ) ) ;
#220 = APPROVAL_DATE_TIME ( #264, #116 ) ;
#221 = FACE_OUTER_BOUND ( 'NONE', #277, .T. ) ;
#222 = CLOSED_SHELL ( 'NONE', ( #30, #106, #156, #140 ) ) ;
#223 =( NAMED_UNIT ( * ) PLANE_ANGLE_UNIT ( ) SI_UNIT ( $, .RADIAN. ) );
#224 = ADVANCED_FACE ( 'NONE', ( #157, #221 ), #31, .T. ) ;
#225 = DIRECTION ( 'NONE',  ( 1.000000000000000000, 0.0000000000000000000, 0.0000000000000000000 ) ) ;
#226 = CARTESIAN_POINT ( 'NONE',  ( -1.892735826383161794E-31, 0.7056624327025945442, -5.421010862427522170E-17 ) ) ;
#227 = FACE_OUTER_BOUND ( 'NONE', #96, .T. ) ;
#228 = EDGE_LOOP ( 'NONE', ( #88 ) ) ;
#229 = CIRCLE ( 'NONE', #57, 0.7803844939755805177 ) ;
#230 = ORIENTED_EDGE ( 'NONE', *, *, #80, .F. ) ;
#231 = VERTEX_POINT ( 'NONE', #15 ) ;
#232 = APPLICATION_PROTOCOL_DEFINITION ( 'international standard', 'config_control_design', 1994, #212 ) ;
#233 = CIRCLE ( 'NONE', #251, 0.8499999999999990896 ) ;
#234 = PERSON_AND_ORGANIZATION ( #158, #67 ) ;
#235 = CARTESIAN_POINT ( 'NONE',  ( 0.0000000000000000000, 0.0000000000000000000, 0.0000000000000000000 ) ) ;
#236 = FACE_OUTER_BOUND ( 'NONE', #187, .T. ) ;
#237 = PERSON_AND_ORGANIZATION_ROLE ( 'creator' ) ;
#238 = DIRECTION ( 'NONE',  ( -3.491481338843133355E-15, 1.224646799147353207E-16, -1.000000000000000000 ) ) ;
#239 = APPROVAL_ROLE ( '' ) ;
#240 = DIRECTION ( 'NONE',  ( -3.491481338843133355E-15, 1.224646799147353207E-16, -1.000000000000000000 ) ) ;
#241 = APPROVAL_DATE_TIME ( #23, #255 ) ;
#242 = DIRECTION ( 'NONE',  ( -3.491481338843133355E-15, 1.224646799147353207E-16, -1.000000000000000000 ) ) ;
#243 = APPROVAL_PERSON_ORGANIZATION ( #259, #255, #8 ) ;
#244 = FACE_OUTER_BOUND ( 'NONE', #184, .T. ) ;
#245 = CIRCLE ( 'NONE', #161, 0.7500000000000000000 ) ;
#246 = ADVANCED_FACE ( 'NONE', ( #244, #278 ), #115, .T. ) ;
#247 = FACE_BOUND ( 'NONE', #126, .T. ) ;
#248 = PERSON_AND_ORGANIZATION_ROLE ( 'design_owner' ) ;
#249 = CC_DESIGN_PERSON_AND_ORGANIZATION_ASSIGNMENT ( #234, #216, ( #151 ) ) ;
#250 = CARTESIAN_POINT ( 'NONE',  ( 1.745740669421566678E-13, 1.199999999999995515, 50.00000000000000000 ) ) ;
#251 = AXIS2_PLACEMENT_3D ( 'NONE', #193, #285, #263 ) ;
#252 = CARTESIAN_POINT ( 'NONE',  ( 2.444036937190193349E-14, -8.572527594031473190E-16, 7.000000000000000000 ) ) ;
#253 = EDGE_LOOP ( 'NONE', ( #300 ) ) ;
#254 = DIRECTION ( 'NONE',  ( 3.491481338843133355E-15, -1.224646799147353207E-16, 1.000000000000000000 ) ) ;
#255 = APPROVAL ( #132, 'UNSPECIFIED' ) ;
#256 = APPROVAL_ROLE ( '' ) ;
#257 = CIRCLE ( 'NONE', #183, 0.7056624327025945442 ) ;
#258 = CARTESIAN_POINT ( 'NONE',  ( 5.586370142149013368E-14, -1.959434878635765131E-15, 16.00000000000000000 ) ) ;
#259 = PERSON_AND_ORGANIZATION ( #158, #67 ) ;
#260 = DIRECTION ( 'NONE',  ( 0.0000000000000000000, -1.000000000000000000, 0.0000000000000000000 ) ) ;
#261 = CALENDAR_DATE ( 2021, 1, 12 ) ;
#262 = CYLINDRICAL_SURFACE ( 'NONE', #202, 1.499999999999999112 ) ;
#263 = DIRECTION ( 'NONE',  ( 4.531599869146441783E-31, 1.000000000000000000, 1.275531967630006478E-16 ) ) ;
#264 = DATE_AND_TIME ( #93, #122 ) ;
#265 = DIRECTION ( 'NONE',  ( -3.491481338843133355E-15, 1.224646799147353207E-16, -1.000000000000000000 ) ) ;
#266 = CC_DESIGN_APPROVAL ( #116, ( #190 ) ) ;
#267 = ADVANCED_FACE ( 'NONE', ( #58, #247 ), #291, .T. ) ;
#268 = CARTESIAN_POINT ( 'NONE',  ( 8.728703347107835360E-16, 0.8499999999999990896, 0.2500000000000000555 ) ) ;
#269 = APPROVAL_PERSON_ORGANIZATION ( #199, #116, #239 ) ;
#270 = CONICAL_SURFACE ( 'NONE', #12, 0.8499999999999990896, 0.5235987755982928205 ) ;
#271 = CC_DESIGN_DATE_AND_TIME_ASSIGNMENT ( #129, #26, ( #192 ) ) ;
#272 = EDGE_LOOP ( 'NONE', ( #280 ) ) ;
#273 = DIRECTION ( 'NONE',  ( -3.491481338843133355E-15, 1.224646799147353207E-16, -1.000000000000000000 ) ) ;
#274 = EDGE_LOOP ( 'NONE', ( #39 ) ) ;
#275 = CARTESIAN_POINT ( 'NONE',  ( 1.735266225405037467E-13, 1.499999999999995559, 49.70000000000000284 ) ) ;
#276 = PLANE ( 'NONE',  #180 ) ;
#277 = EDGE_LOOP ( 'NONE', ( #14 ) ) ;
#278 = FACE_BOUND ( 'NONE', #185, .T. ) ;
#279 = EDGE_CURVE ( 'NONE', #11, #11, #205, .T. ) ;
#280 = ORIENTED_EDGE ( 'NONE', *, *, #293, .F. ) ;
#281 = DIRECTION ( 'NONE',  ( -3.491481338843133355E-15, 1.224646799147353207E-16, -1.000000000000000000 ) ) ;
#282 = LOCAL_TIME ( 15, 3, 31.00000000000000000, #102 ) ;
#283 = DIRECTION ( 'NONE',  ( -3.491481338843133355E-15, 1.224646799147353207E-16, -1.000000000000000000 ) ) ;
#284 = AXIS2_PLACEMENT_3D ( 'NONE', #117, #281, #147 ) ;
#285 = DIRECTION ( 'NONE',  ( -3.491481338843133355E-15, 1.224646799147353207E-16, -1.000000000000000000 ) ) ;
#286 = PERSON_AND_ORGANIZATION ( #158, #67 ) ;
#287 = CYLINDRICAL_SURFACE ( 'NONE', #81, 0.8499999999999995337 ) ;
#288 = CARTESIAN_POINT ( 'NONE',  ( -4.910029446321062046E-31, 1.722206496784170789E-32, -1.406288325730519145E-16 ) ) ;
#289 = COORDINATED_UNIVERSAL_TIME_OFFSET ( 1, 0, .AHEAD. ) ;
#290 = ORIENTED_EDGE ( 'NONE', *, *, #293, .T. ) ;
#291 = CONICAL_SURFACE ( 'NONE', #32, 1.200000000000001732, 0.7853981633974453924 ) ;
#292 = LOCAL_TIME ( 15, 3, 31.00000000000000000, #123 ) ;
#293 = EDGE_CURVE ( 'NONE', #77, #77, #166, .T. ) ;
#294 = EDGE_LOOP ( 'NONE', ( #290 ) ) ;
#295 = CARTESIAN_POINT ( 'NONE',  ( 5.586370142149013368E-14, 0.7499999999999981126, 16.00000000000000000 ) ) ;
#296 = ORIENTED_EDGE ( 'NONE', *, *, #279, .T. ) ;
#297 = VERTEX_POINT ( 'NONE', #275 ) ;
#298 = CC_DESIGN_PERSON_AND_ORGANIZATION_ASSIGNMENT ( #286, #237, ( #192 ) ) ;
#299 = ORIENTED_EDGE ( 'NONE', *, *, #178, .T. ) ;
#300 = ORIENTED_EDGE ( 'NONE', *, *, #209, .T. ) ;
#301 = CALENDAR_DATE ( 2021, 1, 12 ) ;
#302 = DIRECTION ( 'NONE',  ( -3.491481338843133355E-15, 1.224646799147353207E-16, -1.000000000000000000 ) ) ;
#303 = DIRECTION ( 'NONE',  ( 3.491481338843133355E-15, -1.224646799147353207E-16, 1.000000000000000000 ) ) ;
ENDSEC;
END-ISO-10303-21;
