ISO-10303-21;
HEADER;
FILE_DESCRIPTION (( 'STEP AP203' ),
    '1' );
FILE_NAME ('200692.step',
    '2021-12-01T14:03:31',
    ( '' ),
    ( '' ),
    'SwSTEP 2.0',
    'SolidWorks 2019',
    '' );
FILE_SCHEMA (( 'CONFIG_CONTROL_DESIGN' ));
ENDSEC;

DATA;
#1 = CIRCLE ( 'NONE', #280, 0.6749999999999999334 ) ;
#2 =( NAMED_UNIT ( * ) PLANE_ANGLE_UNIT ( ) SI_UNIT ( $, .RADIAN. ) );
#3 = ORIENTED_EDGE ( 'NONE', *, *, #282, .F. ) ;
#4 = DIRECTION ( 'NONE',  ( 1.000000000000000000, 0.0000000000000000000, 0.0000000000000000000 ) ) ;
#5 = ORIENTED_EDGE ( 'NONE', *, *, #197, .T. ) ;
#6 = CONICAL_SURFACE ( 'NONE', #106, 0.7749999999999991340, 0.5235987755982928205 ) ;
#7 = ADVANCED_FACE ( 'NONE', ( #245, #36 ), #6, .T. ) ;
#8 = DIRECTION ( 'NONE',  ( 0.0000000000000000000, 1.000000000000000000, 0.0000000000000000000 ) ) ;
#9 = CARTESIAN_POINT ( 'NONE',  ( 2.444036937190193349E-14, -8.572527594031473190E-16, 7.000000000000000000 ) ) ;
#10 = CARTESIAN_POINT ( 'NONE',  ( 1.735266225405037467E-13, -6.086494591762345225E-15, 49.70000000000000284 ) ) ;
#11 = APPROVAL ( #72, 'UNSPECIFIED' ) ;
#12 = EDGE_CURVE ( 'NONE', #80, #80, #293, .T. ) ;
#13 = DIRECTION ( 'NONE',  ( 4.275831445896958607E-31, 1.000000000000000000, 1.224646799147353207E-16 ) ) ;
#14 = AXIS2_PLACEMENT_3D ( 'NONE', #151, #248, #167 ) ;
#15 = FACE_OUTER_BOUND ( 'NONE', #163, .T. ) ;
#16 = FACE_OUTER_BOUND ( 'NONE', #187, .T. ) ;
#17 = CARTESIAN_POINT ( 'NONE',  ( -2.696606261495628882E-31, 9.458421530030418101E-33, -7.723387295517156405E-17 ) ) ;
#18 = ADVANCED_FACE ( 'NONE', ( #134, #199 ), #111, .T. ) ;
#19 = CARTESIAN_POINT ( 'NONE',  ( 8.728703347107833388E-16, 0.7749999999999991340, 0.2500000000000000000 ) ) ;
#20 = CARTESIAN_POINT ( 'NONE',  ( -1.348303130747814441E-31, 4.729210765015209050E-33, -3.861693647758578203E-17 ) ) ;
#21 = CARTESIAN_POINT ( 'NONE',  ( 6.931911923319508617E-14, 1.499999999999994005, 19.85378482823661983 ) ) ;
#22 = APPLICATION_PROTOCOL_DEFINITION ( 'international standard', 'config_control_design', 1994, #160 ) ;
#23 = ADVANCED_FACE ( 'NONE', ( #154, #270 ), #149, .T. ) ;
#24 = ORIENTED_EDGE ( 'NONE', *, *, #171, .T. ) ;
#25 = AXIS2_PLACEMENT_3D ( 'NONE', #296, #108, #176 ) ;
#26 = EDGE_LOOP ( 'NONE', ( #100 ) ) ;
#27 = CALENDAR_DATE ( 2021, 1, 12 ) ;
#28 = EDGE_LOOP ( 'NONE', ( #128 ) ) ;
#29 = DIRECTION ( 'NONE',  ( 3.491481338843133355E-15, -1.224646799147353207E-16, 1.000000000000000000 ) ) ;
#30 = APPLICATION_PROTOCOL_DEFINITION ( 'international standard', 'config_control_design', 1994, #73 ) ;
#31 = PERSON_AND_ORGANIZATION ( #251, #58 ) ;
#32 = CC_DESIGN_APPROVAL ( #290, ( #71 ) ) ;
#33 = AXIS2_PLACEMENT_3D ( 'NONE', #200, #224, #13 ) ;
#34 = FACE_OUTER_BOUND ( 'NONE', #259, .T. ) ;
#35 = DIRECTION ( 'NONE',  ( 0.0000000000000000000, 1.000000000000000000, 0.0000000000000000000 ) ) ;
#36 = FACE_OUTER_BOUND ( 'NONE', #148, .T. ) ;
#37 =( GEOMETRIC_REPRESENTATION_CONTEXT ( 3 ) GLOBAL_UNCERTAINTY_ASSIGNED_CONTEXT ( ( #274 ) ) GLOBAL_UNIT_ASSIGNED_CONTEXT ( ( #232, #2, #101 ) ) REPRESENTATION_CONTEXT ( 'NONE', 'WORKASPACE' ) );
#38 = CIRCLE ( 'NONE', #195, 1.500000000000001554 ) ;
#39 = EDGE_CURVE ( 'NONE', #220, #220, #1, .T. ) ;
#40 = CC_DESIGN_PERSON_AND_ORGANIZATION_ASSIGNMENT ( #211, #114, ( #71 ) ) ;
#41 = DIRECTION ( 'NONE',  ( -3.491481338843133355E-15, 1.224646799147353207E-16, -1.000000000000000000 ) ) ;
#42 = DIRECTION ( 'NONE',  ( -3.491481338843133355E-15, 1.224646799147353207E-16, -1.000000000000000000 ) ) ;
#43 = DIRECTION ( 'NONE',  ( 4.275831445896958607E-31, 1.000000000000000000, 1.224646799147353207E-16 ) ) ;
#44 = CC_DESIGN_PERSON_AND_ORGANIZATION_ASSIGNMENT ( #77, #99, ( #292 ) ) ;
#45 = AXIS2_PLACEMENT_3D ( 'NONE', #96, #295, #264 ) ;
#46 = CC_DESIGN_PERSON_AND_ORGANIZATION_ASSIGNMENT ( #50, #236, ( #71 ) ) ;
#47 = EDGE_LOOP ( 'NONE', ( #235 ) ) ;
#48 = DATE_TIME_ROLE ( 'creation_date' ) ;
#49 = EDGE_LOOP ( 'NONE', ( #3 ) ) ;
#50 = PERSON_AND_ORGANIZATION ( #251, #58 ) ;
#51 = EDGE_LOOP ( 'NONE', ( #81 ) ) ;
#52 = APPROVAL_STATUS ( 'not_yet_approved' ) ;
#53 = AXIS2_PLACEMENT_3D ( 'NONE', #255, #92, #4 ) ;
#54 = COORDINATED_UNIVERSAL_TIME_OFFSET ( 1, 0, .AHEAD. ) ;
#55 = CARTESIAN_POINT ( 'NONE',  ( 2.444036937190193349E-14, 5.811569157814684546E-33, 7.000000000000000000 ) ) ;
#56 = COORDINATED_UNIVERSAL_TIME_OFFSET ( 1, 0, .AHEAD. ) ;
#57 = MANIFOLD_SOLID_BREP ( 'Corps-Déplacer/Copier1[2]', #156 ) ;
#58 = ORGANIZATION ( 'UNSPECIFIED', 'UNSPECIFIED', '' ) ;
#59 = AXIS2_PLACEMENT_3D ( 'NONE', #83, #170, #84 ) ;
#60 = EDGE_CURVE ( 'NONE', #288, #288, #118, .T. ) ;
#61 = CARTESIAN_POINT ( 'NONE',  ( 2.504511167915743751E-14, -8.784642641776459355E-16, 7.173205080756892116 ) ) ;
#62 = VERTEX_POINT ( 'NONE', #254 ) ;
#63 = ORIENTED_EDGE ( 'NONE', *, *, #39, .T. ) ;
#64 = AXIS2_PLACEMENT_3D ( 'NONE', #107, #66, #294 ) ;
#65 = DIRECTION ( 'NONE',  ( 0.0000000000000000000, 1.000000000000000000, 0.0000000000000000000 ) ) ;
#66 = DIRECTION ( 'NONE',  ( -3.491481338843133355E-15, 1.224646799147353207E-16, -1.000000000000000000 ) ) ;
#67 = EDGE_CURVE ( 'NONE', #183, #183, #144, .T. ) ;
#68 = CONICAL_SURFACE ( 'NONE', #164, 1.499999999999996447, 0.1745329251994260644 ) ;
#69 = ADVANCED_FACE ( 'NONE', ( #227, #15 ), #231, .T. ) ;
#70 = CARTESIAN_POINT ( 'NONE',  ( 0.0000000000000000000, 0.6306624327025946997, 0.0000000000000000000 ) ) ;
#71 = PRODUCT_DEFINITION_FORMATION_WITH_SPECIFIED_SOURCE ( 'ANY', '', #292, .NOT_KNOWN. ) ;
#72 = APPROVAL_STATUS ( 'not_yet_approved' ) ;
#73 = APPLICATION_CONTEXT ( 'configuration controlled 3d designs of mechanical parts and assemblies' ) ;
#74 = EDGE_LOOP ( 'NONE', ( #90 ) ) ;
#75 = CALENDAR_DATE ( 2021, 1, 12 ) ;
#76 = EDGE_LOOP ( 'NONE', ( #5 ) ) ;
#77 = PERSON_AND_ORGANIZATION ( #251, #58 ) ;
#78 = ORIENTED_EDGE ( 'NONE', *, *, #171, .F. ) ;
#79 = AXIS2_PLACEMENT_3D ( 'NONE', #61, #243, #35 ) ;
#80 = VERTEX_POINT ( 'NONE', #196 ) ;
#81 = ORIENTED_EDGE ( 'NONE', *, *, #12, .T. ) ;
#82 = DIRECTION ( 'NONE',  ( -3.491481338843133355E-15, 1.224646799147353207E-16, -1.000000000000000000 ) ) ;
#83 = CARTESIAN_POINT ( 'NONE',  ( 1.745740669421566678E-13, -6.123233995736766085E-15, 50.00000000000000000 ) ) ;
#84 = DIRECTION ( 'NONE',  ( 0.0000000000000000000, 1.000000000000000000, 0.0000000000000000000 ) ) ;
#85 = FACE_OUTER_BOUND ( 'NONE', #115, .T. ) ;
#86 = APPROVAL_PERSON_ORGANIZATION ( #184, #290, #141 ) ;
#87 = DIRECTION ( 'NONE',  ( 0.0000000000000000000, 1.000000000000000000, 0.0000000000000000000 ) ) ;
#88 = PLANE ( 'NONE',  #205 ) ;
#89 = DIRECTION ( 'NONE',  ( -4.275831445896958607E-31, -1.000000000000000000, -1.224646799147353207E-16 ) ) ;
#90 = ORIENTED_EDGE ( 'NONE', *, *, #67, .T. ) ;
#91 = LOCAL_TIME ( 15, 3, 31.00000000000000000, #165 ) ;
#92 = DIRECTION ( 'NONE',  ( 0.0000000000000000000, 0.0000000000000000000, 1.000000000000000000 ) ) ;
#93 = CIRCLE ( 'NONE', #25, 0.7749999999999991340 ) ;
#94 = VERTEX_POINT ( 'NONE', #19 ) ;
#95 = DATE_AND_TIME ( #190, #175 ) ;
#96 = CARTESIAN_POINT ( 'NONE',  ( 6.931911923319508617E-14, -2.431387404086026471E-15, 19.85378482823661983 ) ) ;
#97 = EDGE_CURVE ( 'NONE', #94, #94, #93, .T. ) ;
#98 = EDGE_LOOP ( 'NONE', ( #256 ) ) ;
#99 = PERSON_AND_ORGANIZATION_ROLE ( 'design_owner' ) ;
#100 = ORIENTED_EDGE ( 'NONE', *, *, #215, .F. ) ;
#101 =( NAMED_UNIT ( * ) SI_UNIT ( $, .STERADIAN. ) SOLID_ANGLE_UNIT ( ) );
#102 = AXIS2_PLACEMENT_3D ( 'NONE', #150, #173, #65 ) ;
#103 = DIRECTION ( 'NONE',  ( 3.491481338843133355E-15, -1.224646799147353207E-16, 1.000000000000000000 ) ) ;
#104 = DIRECTION ( 'NONE',  ( 3.491481338843133355E-15, -1.224646799147353207E-16, 1.000000000000000000 ) ) ;
#105 = DIRECTION ( 'NONE',  ( -4.970141791967066142E-31, -1.000000000000000000, -1.398970545142588021E-16 ) ) ;
#106 = AXIS2_PLACEMENT_3D ( 'NONE', #129, #218, #105 ) ;
#107 = CARTESIAN_POINT ( 'NONE',  ( 2.504511167915743751E-14, -8.784642641776459355E-16, 7.173205080756892116 ) ) ;
#108 = DIRECTION ( 'NONE',  ( -3.491481338843133355E-15, 1.224646799147353207E-16, -1.000000000000000000 ) ) ;
#109 = DIRECTION ( 'NONE',  ( -3.491481338843133355E-15, 1.224646799147353207E-16, -1.000000000000000000 ) ) ;
#110 = ADVANCED_FACE ( 'NONE', ( #85 ), #275, .F. ) ;
#111 = CONICAL_SURFACE ( 'NONE', #64, 0.6749999999999989342, 0.5235987755982933756 ) ;
#112 = DIRECTION ( 'NONE',  ( -3.491481338843133355E-15, 1.224646799147353207E-16, -1.000000000000000000 ) ) ;
#113 = DIRECTION ( 'NONE',  ( 3.491481338843133355E-15, -1.224646799147353207E-16, 1.000000000000000000 ) ) ;
#114 = PERSON_AND_ORGANIZATION_ROLE ( 'design_supplier' ) ;
#115 = EDGE_LOOP ( 'NONE', ( #121 ) ) ;
#116 = VERTEX_POINT ( 'NONE', #21 ) ;
#117 = DATE_AND_TIME ( #75, #130 ) ;
#118 = CIRCLE ( 'NONE', #226, 0.6306624327025946997 ) ;
#119 = EDGE_CURVE ( 'NONE', #116, #116, #289, .T. ) ;
#120 = ORIENTED_EDGE ( 'NONE', *, *, #282, .T. ) ;
#121 = ORIENTED_EDGE ( 'NONE', *, *, #12, .F. ) ;
#122 = DIRECTION ( 'NONE',  ( -4.275831445896958607E-31, -1.000000000000000000, -1.224646799147353207E-16 ) ) ;
#123 = DATE_AND_TIME ( #27, #152 ) ;
#124 = CARTESIAN_POINT ( 'NONE',  ( 5.237222008264700033E-14, 0.6749999999999980460, 15.00000000000000000 ) ) ;
#125 = SHAPE_DEFINITION_REPRESENTATION ( #239, #266 ) ;
#126 = AXIS2_PLACEMENT_3D ( 'NONE', #273, #112, #43 ) ;
#127 = FACE_OUTER_BOUND ( 'NONE', #189, .T. ) ;
#128 = ORIENTED_EDGE ( 'NONE', *, *, #119, .F. ) ;
#129 = CARTESIAN_POINT ( 'NONE',  ( 8.728703347107829444E-16, -3.061616997868381785E-17, 0.2499999999999998890 ) ) ;
#130 = LOCAL_TIME ( 15, 3, 31.00000000000000000, #56 ) ;
#131 = FACE_OUTER_BOUND ( 'NONE', #28, .T. ) ;
#132 = AXIS2_PLACEMENT_3D ( 'NONE', #55, #103, #122 ) ;
#133 = DIRECTION ( 'NONE',  ( 0.0000000000000000000, 1.000000000000000000, 0.0000000000000000000 ) ) ;
#134 = FACE_OUTER_BOUND ( 'NONE', #145, .T. ) ;
#135 = CARTESIAN_POINT ( 'NONE',  ( 0.0000000000000000000, 0.0000000000000000000, 0.0000000000000000000 ) ) ;
#136 = FACE_OUTER_BOUND ( 'NONE', #291, .T. ) ;
#137 = APPROVAL_DATE_TIME ( #260, #11 ) ;
#138 = ORIENTED_EDGE ( 'NONE', *, *, #197, .F. ) ;
#139 = MECHANICAL_CONTEXT ( 'NONE', #160, 'mechanical' ) ;
#140 = CARTESIAN_POINT ( 'NONE',  ( 5.358479882634335789E-14, 0.7053844939755791188, 15.34729635533384595 ) ) ;
#141 = APPROVAL_ROLE ( '' ) ;
#142 = CARTESIAN_POINT ( 'NONE',  ( 6.931911923319508617E-14, -2.431387404086026471E-15, 19.85378482823661983 ) ) ;
#143 = APPROVAL_ROLE ( '' ) ;
#144 = CIRCLE ( 'NONE', #267, 0.7750000000000000222 ) ;
#145 = EDGE_LOOP ( 'NONE', ( #194 ) ) ;
#146 = ADVANCED_FACE ( 'NONE', ( #131, #147 ), #221, .T. ) ;
#147 = FACE_OUTER_BOUND ( 'NONE', #284, .T. ) ;
#148 = EDGE_LOOP ( 'NONE', ( #240 ) ) ;
#149 = CONICAL_SURFACE ( 'NONE', #102, 1.200000000000001732, 0.7853981633974453924 ) ;
#150 = CARTESIAN_POINT ( 'NONE',  ( 1.745740669421566678E-13, -6.123233995736766085E-15, 50.00000000000000000 ) ) ;
#151 = CARTESIAN_POINT ( 'NONE',  ( 5.358479882634335789E-14, -1.879501735712543302E-15, 15.34729635533384595 ) ) ;
#152 = LOCAL_TIME ( 15, 3, 31.00000000000000000, #238 ) ;
#153 = CIRCLE ( 'NONE', #79, 0.6749999999999989342 ) ;
#154 = FACE_OUTER_BOUND ( 'NONE', #49, .T. ) ;
#155 = CC_DESIGN_PERSON_AND_ORGANIZATION_ASSIGNMENT ( #162, #281, ( #193 ) ) ;
#156 = CLOSED_SHELL ( 'NONE', ( #169, #7, #157, #253 ) ) ;
#157 = ADVANCED_FACE ( 'NONE', ( #277, #16 ), #297, .T. ) ;
#158 = ORIENTED_EDGE ( 'NONE', *, *, #60, .T. ) ;
#159 = VERTEX_POINT ( 'NONE', #140 ) ;
#160 = APPLICATION_CONTEXT ( 'configuration controlled 3d designs of mechanical parts and assemblies' ) ;
#161 = CALENDAR_DATE ( 2021, 1, 12 ) ;
#162 = PERSON_AND_ORGANIZATION ( #251, #58 ) ;
#163 = EDGE_LOOP ( 'NONE', ( #63 ) ) ;
#164 = AXIS2_PLACEMENT_3D ( 'NONE', #142, #104, #265 ) ;
#165 = COORDINATED_UNIVERSAL_TIME_OFFSET ( 1, 0, .AHEAD. ) ;
#166 = APPROVAL_STATUS ( 'not_yet_approved' ) ;
#167 = DIRECTION ( 'NONE',  ( 0.0000000000000000000, 1.000000000000000000, 0.0000000000000000000 ) ) ;
#168 = APPROVAL_PERSON_ORGANIZATION ( #287, #201, #143 ) ;
#169 = ADVANCED_FACE ( 'NONE', ( #136 ), #88, .F. ) ;
#170 = DIRECTION ( 'NONE',  ( -3.491481338843133355E-15, 1.224646799147353207E-16, -1.000000000000000000 ) ) ;
#171 = EDGE_CURVE ( 'NONE', #159, #159, #252, .T. ) ;
#172 = CLOSED_SHELL ( 'NONE', ( #230, #18, #69, #299, #278, #146, #23, #110 ) ) ;
#173 = DIRECTION ( 'NONE',  ( -3.491481338843133355E-15, 1.224646799147353207E-16, -1.000000000000000000 ) ) ;
#174 = DIRECTION ( 'NONE',  ( 4.275831445896958607E-31, 1.000000000000000000, 1.224646799147353207E-16 ) ) ;
#175 = LOCAL_TIME ( 15, 3, 31.00000000000000000, #54 ) ;
#176 = DIRECTION ( 'NONE',  ( 4.970141791967066142E-31, 1.000000000000000000, 1.398970545142588021E-16 ) ) ;
#177 = CC_DESIGN_PERSON_AND_ORGANIZATION_ASSIGNMENT ( #31, #180, ( #219 ) ) ;
#178 = DESIGN_CONTEXT ( 'detailed design', #73, 'design' ) ;
#179 = FACE_BOUND ( 'NONE', #209, .T. ) ;
#180 = PERSON_AND_ORGANIZATION_ROLE ( 'classification_officer' ) ;
#181 = CC_DESIGN_DATE_AND_TIME_ASSIGNMENT ( #117, #208, ( #219 ) ) ;
#182 = CIRCLE ( 'NONE', #263, 0.7750000000000000222 ) ;
#183 = VERTEX_POINT ( 'NONE', #285 ) ;
#184 = PERSON_AND_ORGANIZATION ( #251, #58 ) ;
#185 = VERTEX_POINT ( 'NONE', #228 ) ;
#186 = CALENDAR_DATE ( 2021, 1, 12 ) ;
#187 = EDGE_LOOP ( 'NONE', ( #244 ) ) ;
#188 = PERSON_AND_ORGANIZATION ( #251, #58 ) ;
#189 = EDGE_LOOP ( 'NONE', ( #24 ) ) ;
#190 = CALENDAR_DATE ( 2021, 1, 12 ) ;
#191 = DIRECTION ( 'NONE',  ( -3.491481338843133355E-15, 1.224646799147353207E-16, -1.000000000000000000 ) ) ;
#192 = DIRECTION ( 'NONE',  ( 4.275831445896958607E-31, 1.000000000000000000, 1.224646799147353207E-16 ) ) ;
#193 = PRODUCT_DEFINITION ( 'UNKNOWN', '', #71, #178 ) ;
#194 = ORIENTED_EDGE ( 'NONE', *, *, #67, .F. ) ;
#195 = AXIS2_PLACEMENT_3D ( 'NONE', #10, #191, #8 ) ;
#196 = CARTESIAN_POINT ( 'NONE',  ( 1.745740669421566678E-13, 1.199999999999995515, 50.00000000000000000 ) ) ;
#197 = EDGE_CURVE ( 'NONE', #185, #185, #153, .T. ) ;
#198 = LOCAL_TIME ( 15, 3, 31.00000000000000000, #242 ) ;
#199 = FACE_BOUND ( 'NONE', #76, .T. ) ;
#200 = CARTESIAN_POINT ( 'NONE',  ( 1.745740669421566678E-13, 8.998558695971067645E-33, 50.00000000000000000 ) ) ;
#201 = APPROVAL ( #166, 'UNSPECIFIED' ) ;
#202 = DIRECTION ( 'NONE',  ( 4.275831445896958607E-31, 1.000000000000000000, 1.224646799147353207E-16 ) ) ;
#203 = DIRECTION ( 'NONE',  ( -3.491481338843133355E-15, 1.224646799147353207E-16, -1.000000000000000000 ) ) ;
#204 = DIRECTION ( 'NONE',  ( 0.0000000000000000000, 1.000000000000000000, 0.0000000000000000000 ) ) ;
#205 = AXIS2_PLACEMENT_3D ( 'NONE', #20, #113, #271 ) ;
#206 = SECURITY_CLASSIFICATION_LEVEL ( 'unclassified' ) ;
#207 = EDGE_LOOP ( 'NONE', ( #138 ) ) ;
#208 = DATE_TIME_ROLE ( 'classification_date' ) ;
#209 = EDGE_LOOP ( 'NONE', ( #78 ) ) ;
#210 = FACE_OUTER_BOUND ( 'NONE', #98, .T. ) ;
#211 = PERSON_AND_ORGANIZATION ( #251, #58 ) ;
#212 = CC_DESIGN_SECURITY_CLASSIFICATION ( #219, ( #71 ) ) ;
#213 = DIRECTION ( 'NONE',  ( -3.491481338843133355E-15, 1.224646799147353207E-16, -1.000000000000000000 ) ) ;
#214 = AXIS2_PLACEMENT_3D ( 'NONE', #135, #203, #229 ) ;
#215 = EDGE_CURVE ( 'NONE', #222, #222, #182, .T. ) ;
#216 = CARTESIAN_POINT ( 'NONE',  ( 5.237222008264700033E-14, -1.734723475976807094E-15, 15.00000000000000000 ) ) ;
#217 = CARTESIAN_POINT ( 'NONE',  ( 2.444036937190193349E-14, 0.7749999999999991340, 7.000000000000000000 ) ) ;
#218 = DIRECTION ( 'NONE',  ( 3.491481338843133355E-15, -1.224646799147353207E-16, 1.000000000000000000 ) ) ;
#219 = SECURITY_CLASSIFICATION ( '', '', #206 ) ;
#220 = VERTEX_POINT ( 'NONE', #124 ) ;
#221 = CYLINDRICAL_SURFACE ( 'NONE', #214, 1.499999999999998890 ) ;
#222 = VERTEX_POINT ( 'NONE', #217 ) ;
#223 = AXIS2_PLACEMENT_3D ( 'NONE', #216, #82, #192 ) ;
#224 = DIRECTION ( 'NONE',  ( -3.491481338843133355E-15, 1.224646799147353207E-16, -1.000000000000000000 ) ) ;
#225 = APPROVAL_PERSON_ORGANIZATION ( #188, #11, #283 ) ;
#226 = AXIS2_PLACEMENT_3D ( 'NONE', #17, #42, #174 ) ;
#227 = FACE_OUTER_BOUND ( 'NONE', #207, .T. ) ;
#228 = CARTESIAN_POINT ( 'NONE',  ( 2.504511167915743751E-14, 0.6749999999999980460, 7.173205080756892116 ) ) ;
#229 = DIRECTION ( 'NONE',  ( 4.275831445896958607E-31, 1.000000000000000000, 1.224646799147353454E-16 ) ) ;
#230 = ADVANCED_FACE ( 'NONE', ( #234 ), #261, .F. ) ;
#231 = CYLINDRICAL_SURFACE ( 'NONE', #233, 0.6749999999999993783 ) ;
#232 =( LENGTH_UNIT ( ) NAMED_UNIT ( * ) SI_UNIT ( .MILLI., .METRE. ) );
#233 = AXIS2_PLACEMENT_3D ( 'NONE', #298, #109, #202 ) ;
#234 = FACE_OUTER_BOUND ( 'NONE', #74, .T. ) ;
#235 = ORIENTED_EDGE ( 'NONE', *, *, #97, .F. ) ;
#236 = PERSON_AND_ORGANIZATION_ROLE ( 'creator' ) ;
#237 = EDGE_LOOP ( 'NONE', ( #268 ) ) ;
#238 = COORDINATED_UNIVERSAL_TIME_OFFSET ( 1, 0, .AHEAD. ) ;
#239 = PRODUCT_DEFINITION_SHAPE ( 'NONE', 'NONE',  #193 ) ;
#240 = ORIENTED_EDGE ( 'NONE', *, *, #97, .T. ) ;
#241 = FACE_OUTER_BOUND ( 'NONE', #26, .T. ) ;
#242 = COORDINATED_UNIVERSAL_TIME_OFFSET ( 1, 0, .AHEAD. ) ;
#243 = DIRECTION ( 'NONE',  ( -3.491481338843133355E-15, 1.224646799147353207E-16, -1.000000000000000000 ) ) ;
#244 = ORIENTED_EDGE ( 'NONE', *, *, #215, .T. ) ;
#245 = FACE_BOUND ( 'NONE', #237, .T. ) ;
#246 = TOROIDAL_SURFACE ( 'NONE', #223, 2.674999999999999822, 2.000000000000000000 ) ;
#247 = DIRECTION ( 'NONE',  ( -3.491481338843133355E-15, 1.224646799147353207E-16, -1.000000000000000000 ) ) ;
#248 = DIRECTION ( 'NONE',  ( -3.491481338843133355E-15, 1.224646799147353207E-16, -1.000000000000000000 ) ) ;
#249 = CARTESIAN_POINT ( 'NONE',  ( 5.237222008264700033E-14, -1.836970198721029589E-15, 15.00000000000000000 ) ) ;
#250 = MANIFOLD_SOLID_BREP ( 'Corps-Déplacer/Copier1[1]', #172 ) ;
#251 = PERSON ( 'UNSPECIFIED', 'UNSPECIFIED', 'UNSPECIFIED', ('UNSPECIFIED'), ('UNSPECIFIED'), ('UNSPECIFIED') ) ;
#252 = CIRCLE ( 'NONE', #14, 0.7053844939755808952 ) ;
#253 = ADVANCED_FACE ( 'NONE', ( #241 ), #276, .T. ) ;
#254 = CARTESIAN_POINT ( 'NONE',  ( 1.735266225405037467E-13, 1.499999999999995559, 49.70000000000000284 ) ) ;
#255 = CARTESIAN_POINT ( 'NONE',  ( 0.0000000000000000000, 0.0000000000000000000, 0.0000000000000000000 ) ) ;
#256 = ORIENTED_EDGE ( 'NONE', *, *, #119, .T. ) ;
#257 = CC_DESIGN_DATE_AND_TIME_ASSIGNMENT ( #95, #48, ( #193 ) ) ;
#258 = CC_DESIGN_APPROVAL ( #201, ( #219 ) ) ;
#259 = EDGE_LOOP ( 'NONE', ( #301 ) ) ;
#260 = DATE_AND_TIME ( #186, #91 ) ;
#261 = PLANE ( 'NONE',  #286 ) ;
#262 = APPROVAL_DATE_TIME ( #123, #290 ) ;
#263 = AXIS2_PLACEMENT_3D ( 'NONE', #9, #213, #204 ) ;
#264 = DIRECTION ( 'NONE',  ( 0.0000000000000000000, 1.000000000000000000, 0.0000000000000000000 ) ) ;
#265 = DIRECTION ( 'NONE',  ( 0.0000000000000000000, -1.000000000000000000, 0.0000000000000000000 ) ) ;
#266 = ADVANCED_BREP_SHAPE_REPRESENTATION ( '200692', ( #250, #57, #53 ), #37 ) ;
#267 = AXIS2_PLACEMENT_3D ( 'NONE', #272, #41, #133 ) ;
#268 = ORIENTED_EDGE ( 'NONE', *, *, #60, .F. ) ;
#269 = PRODUCT_RELATED_PRODUCT_CATEGORY ( 'detail', '', ( #292 ) ) ;
#270 = FACE_BOUND ( 'NONE', #51, .T. ) ;
#271 = DIRECTION ( 'NONE',  ( -4.275831445896958607E-31, -1.000000000000000000, -1.224646799147353207E-16 ) ) ;
#272 = CARTESIAN_POINT ( 'NONE',  ( 2.444036937190193349E-14, -8.572527594031473190E-16, 7.000000000000000000 ) ) ;
#273 = CARTESIAN_POINT ( 'NONE',  ( 0.0000000000000000000, 0.0000000000000000000, 0.0000000000000000000 ) ) ;
#274 = UNCERTAINTY_MEASURE_WITH_UNIT (LENGTH_MEASURE( 1.000000000000000082E-05 ), #232, 'distance_accuracy_value', 'NONE');
#275 = PLANE ( 'NONE',  #33 ) ;
#276 = PLANE ( 'NONE',  #132 ) ;
#277 = FACE_OUTER_BOUND ( 'NONE', #47, .T. ) ;
#278 = ADVANCED_FACE ( 'NONE', ( #179, #210 ), #68, .T. ) ;
#279 = DATE_AND_TIME ( #161, #198 ) ;
#280 = AXIS2_PLACEMENT_3D ( 'NONE', #249, #247, #87 ) ;
#281 = PERSON_AND_ORGANIZATION_ROLE ( 'creator' ) ;
#282 = EDGE_CURVE ( 'NONE', #62, #62, #38, .T. ) ;
#283 = APPROVAL_ROLE ( '' ) ;
#284 = EDGE_LOOP ( 'NONE', ( #120 ) ) ;
#285 = CARTESIAN_POINT ( 'NONE',  ( 2.444036937190193349E-14, 0.7749999999999991340, 7.000000000000000000 ) ) ;
#286 = AXIS2_PLACEMENT_3D ( 'NONE', #300, #29, #89 ) ;
#287 = PERSON_AND_ORGANIZATION ( #251, #58 ) ;
#288 = VERTEX_POINT ( 'NONE', #70 ) ;
#289 = CIRCLE ( 'NONE', #45, 1.499999999999996447 ) ;
#290 = APPROVAL ( #52, 'UNSPECIFIED' ) ;
#291 = EDGE_LOOP ( 'NONE', ( #158 ) ) ;
#292 = PRODUCT ( '200692', '200692', '', ( #139 ) ) ;
#293 = CIRCLE ( 'NONE', #59, 1.200000000000001732 ) ;
#294 = DIRECTION ( 'NONE',  ( 0.0000000000000000000, 1.000000000000000000, 0.0000000000000000000 ) ) ;
#295 = DIRECTION ( 'NONE',  ( -3.491481338843133355E-15, 1.224646799147353207E-16, -1.000000000000000000 ) ) ;
#296 = CARTESIAN_POINT ( 'NONE',  ( 8.728703347107829444E-16, -3.061616997868381785E-17, 0.2499999999999998890 ) ) ;
#297 = CYLINDRICAL_SURFACE ( 'NONE', #126, 0.7749999999999995781 ) ;
#298 = CARTESIAN_POINT ( 'NONE',  ( 0.0000000000000000000, 0.0000000000000000000, 0.0000000000000000000 ) ) ;
#299 = ADVANCED_FACE ( 'NONE', ( #34, #127 ), #246, .F. ) ;
#300 = CARTESIAN_POINT ( 'NONE',  ( 2.444036937190193349E-14, 5.811569157814684546E-33, 7.000000000000000000 ) ) ;
#301 = ORIENTED_EDGE ( 'NONE', *, *, #39, .F. ) ;
#302 = APPROVAL_DATE_TIME ( #279, #201 ) ;
#303 = CC_DESIGN_APPROVAL ( #11, ( #193 ) ) ;
ENDSEC;
END-ISO-10303-21;
