ISO-10303-21;
HEADER;
FILE_DESCRIPTION (( 'STEP AP203' ),
    '1' );
FILE_NAME ('200691.step',
    '2021-12-01T14:03:30',
    ( '' ),
    ( '' ),
    'SwSTEP 2.0',
    'SolidWorks 2019',
    '' );
FILE_SCHEMA (( 'CONFIG_CONTROL_DESIGN' ));
ENDSEC;

DATA;
#1 = DIRECTION ( 'NONE',  ( -4.275831445896958607E-31, -1.000000000000000000, -1.224646799147353207E-16 ) ) ;
#2 = DIRECTION ( 'NONE',  ( 3.491481338843133355E-15, -1.224646799147353207E-16, 1.000000000000000000 ) ) ;
#3 = CARTESIAN_POINT ( 'NONE',  ( 0.0000000000000000000, 0.0000000000000000000, 0.0000000000000000000 ) ) ;
#4 = APPLICATION_PROTOCOL_DEFINITION ( 'international standard', 'config_control_design', 1994, #262 ) ;
#5 = LOCAL_TIME ( 15, 3, 30.00000000000000000, #200 ) ;
#6 = COORDINATED_UNIVERSAL_TIME_OFFSET ( 1, 0, .AHEAD. ) ;
#7 = ADVANCED_FACE ( 'NONE', ( #35 ), #257, .F. ) ;
#8 = CARTESIAN_POINT ( 'NONE',  ( 2.444036937190193349E-14, 0.8249999999999990674, 7.000000000000000000 ) ) ;
#9 = DIRECTION ( 'NONE',  ( 4.275831445896958607E-31, 1.000000000000000000, 1.224646799147353207E-16 ) ) ;
#10 = CIRCLE ( 'NONE', #48, 0.8249999999999998446 ) ;
#11 = CC_DESIGN_PERSON_AND_ORGANIZATION_ASSIGNMENT ( #98, #120, ( #32 ) ) ;
#12 = FACE_OUTER_BOUND ( 'NONE', #184, .T. ) ;
#13 = EDGE_LOOP ( 'NONE', ( #249 ) ) ;
#14 = DIRECTION ( 'NONE',  ( -3.491481338843133355E-15, 1.224646799147353207E-16, -1.000000000000000000 ) ) ;
#15 = EDGE_LOOP ( 'NONE', ( #291 ) ) ;
#16 = DIRECTION ( 'NONE',  ( -3.491481338843133355E-15, 1.224646799147353207E-16, -1.000000000000000000 ) ) ;
#17 = ORIENTED_EDGE ( 'NONE', *, *, #168, .F. ) ;
#18 = DATE_AND_TIME ( #25, #287 ) ;
#19 = EDGE_LOOP ( 'NONE', ( #266 ) ) ;
#20 = PERSON_AND_ORGANIZATION_ROLE ( 'creator' ) ;
#21 = CC_DESIGN_APPROVAL ( #220, ( #111 ) ) ;
#22 = DIRECTION ( 'NONE',  ( 0.0000000000000000000, 1.000000000000000000, 0.0000000000000000000 ) ) ;
#23 = CARTESIAN_POINT ( 'NONE',  ( 5.707628016518647231E-14, 0.7553844939755782750, 16.34729635533384240 ) ) ;
#24 = FACE_BOUND ( 'NONE', #29, .T. ) ;
#25 = CALENDAR_DATE ( 2021, 1, 12 ) ;
#26 = FACE_OUTER_BOUND ( 'NONE', #64, .T. ) ;
#27 = VERTEX_POINT ( 'NONE', #23 ) ;
#28 = CC_DESIGN_PERSON_AND_ORGANIZATION_ASSIGNMENT ( #107, #38, ( #111 ) ) ;
#29 = EDGE_LOOP ( 'NONE', ( #17 ) ) ;
#30 = FACE_OUTER_BOUND ( 'NONE', #15, .T. ) ;
#31 =( GEOMETRIC_REPRESENTATION_CONTEXT ( 3 ) GLOBAL_UNCERTAINTY_ASSIGNED_CONTEXT ( ( #134 ) ) GLOBAL_UNIT_ASSIGNED_CONTEXT ( ( #193, #225, #97 ) ) REPRESENTATION_CONTEXT ( 'NONE', 'WORKASPACE' ) );
#32 = PRODUCT ( '200691', '200691', '', ( #109 ) ) ;
#33 = DIRECTION ( 'NONE',  ( -3.491481338843133355E-15, 1.224646799147353207E-16, -1.000000000000000000 ) ) ;
#34 = ADVANCED_FACE ( 'NONE', ( #52, #194 ), #180, .T. ) ;
#35 = FACE_OUTER_BOUND ( 'NONE', #268, .T. ) ;
#36 = CARTESIAN_POINT ( 'NONE',  ( 2.444036937190193349E-14, -8.572527594031473190E-16, 7.000000000000000000 ) ) ;
#37 = CALENDAR_DATE ( 2021, 1, 12 ) ;
#38 = PERSON_AND_ORGANIZATION_ROLE ( 'design_supplier' ) ;
#39 = DIRECTION ( 'NONE',  ( -3.491481338843133355E-15, 1.224646799147353207E-16, -1.000000000000000000 ) ) ;
#40 = AXIS2_PLACEMENT_3D ( 'NONE', #226, #47, #69 ) ;
#41 = DIRECTION ( 'NONE',  ( 4.275831445896958607E-31, 1.000000000000000000, 1.224646799147353207E-16 ) ) ;
#42 = ORIENTED_EDGE ( 'NONE', *, *, #45, .F. ) ;
#43 = ORIENTED_EDGE ( 'NONE', *, *, #168, .T. ) ;
#44 = CARTESIAN_POINT ( 'NONE',  ( 8.728703347107829444E-16, -3.061616997868381785E-17, 0.2499999999999998890 ) ) ;
#45 = EDGE_CURVE ( 'NONE', #203, #203, #70, .T. ) ;
#46 = ADVANCED_FACE ( 'NONE', ( #258 ), #302, .F. ) ;
#47 = DIRECTION ( 'NONE',  ( -3.491481338843133355E-15, 1.224646799147353207E-16, -1.000000000000000000 ) ) ;
#48 = AXIS2_PLACEMENT_3D ( 'NONE', #36, #132, #281 ) ;
#49 = CC_DESIGN_APPROVAL ( #142, ( #198 ) ) ;
#50 = CC_DESIGN_DATE_AND_TIME_ASSIGNMENT ( #55, #155, ( #198 ) ) ;
#51 = CARTESIAN_POINT ( 'NONE',  ( 8.728703347107829444E-16, -3.061616997868381785E-17, 0.2499999999999998890 ) ) ;
#52 = FACE_BOUND ( 'NONE', #205, .T. ) ;
#53 = FACE_OUTER_BOUND ( 'NONE', #71, .T. ) ;
#54 = DIRECTION ( 'NONE',  ( 3.491481338843133355E-15, -1.224646799147353207E-16, 1.000000000000000000 ) ) ;
#55 = DATE_AND_TIME ( #172, #185 ) ;
#56 = PERSON_AND_ORGANIZATION ( #112, #240 ) ;
#57 = CONICAL_SURFACE ( 'NONE', #61, 1.200000000000001732, 0.7853981633974453924 ) ;
#58 = PRODUCT_RELATED_PRODUCT_CATEGORY ( 'detail', '', ( #32 ) ) ;
#59 = AXIS2_PLACEMENT_3D ( 'NONE', #105, #2, #128 ) ;
#60 = EDGE_CURVE ( 'NONE', #202, #202, #282, .T. ) ;
#61 = AXIS2_PLACEMENT_3D ( 'NONE', #273, #14, #22 ) ;
#62 = EDGE_LOOP ( 'NONE', ( #42 ) ) ;
#63 = DIRECTION ( 'NONE',  ( 4.275831445896958607E-31, 1.000000000000000000, 1.224646799147353207E-16 ) ) ;
#64 = EDGE_LOOP ( 'NONE', ( #116 ) ) ;
#65 = ADVANCED_FACE ( 'NONE', ( #241 ), #78, .F. ) ;
#66 = APPROVAL_PERSON_ORGANIZATION ( #56, #303, #147 ) ;
#67 = FACE_BOUND ( 'NONE', #13, .T. ) ;
#68 = APPROVAL_DATE_TIME ( #272, #142 ) ;
#69 = DIRECTION ( 'NONE',  ( 0.0000000000000000000, 1.000000000000000000, 0.0000000000000000000 ) ) ;
#70 = CIRCLE ( 'NONE', #234, 1.499999999999996669 ) ;
#71 = EDGE_LOOP ( 'NONE', ( #245 ) ) ;
#72 = CIRCLE ( 'NONE', #160, 1.500000000000001554 ) ;
#73 = CARTESIAN_POINT ( 'NONE',  ( 1.745740669421566678E-13, 1.199999999999995515, 50.00000000000000000 ) ) ;
#74 = DESIGN_CONTEXT ( 'detailed design', #262, 'design' ) ;
#75 = COORDINATED_UNIVERSAL_TIME_OFFSET ( 1, 0, .AHEAD. ) ;
#76 = DIRECTION ( 'NONE',  ( 0.0000000000000000000, 1.000000000000000000, 0.0000000000000000000 ) ) ;
#77 = DIRECTION ( 'NONE',  ( 4.275831445896958607E-31, 1.000000000000000000, 1.224646799147353207E-16 ) ) ;
#78 = PLANE ( 'NONE',  #204 ) ;
#79 = EDGE_CURVE ( 'NONE', #261, #261, #301, .T. ) ;
#80 = PERSON_AND_ORGANIZATION_ROLE ( 'creator' ) ;
#81 = AXIS2_PLACEMENT_3D ( 'NONE', #260, #159, #141 ) ;
#82 = CARTESIAN_POINT ( 'NONE',  ( 2.444036937190193349E-14, 0.8249999999999990674, 7.000000000000000000 ) ) ;
#83 = CC_DESIGN_SECURITY_CLASSIFICATION ( #198, ( #111 ) ) ;
#84 = CARTESIAN_POINT ( 'NONE',  ( 5.586370142149013368E-14, 0.7249999999999977573, 16.00000000000000000 ) ) ;
#85 = AXIS2_PLACEMENT_3D ( 'NONE', #51, #175, #279 ) ;
#86 = EDGE_CURVE ( 'NONE', #110, #110, #10, .T. ) ;
#87 = EDGE_CURVE ( 'NONE', #139, #139, #243, .T. ) ;
#88 = ORIENTED_EDGE ( 'NONE', *, *, #87, .T. ) ;
#89 = ADVANCED_FACE ( 'NONE', ( #30, #26 ), #218, .T. ) ;
#90 = ORIENTED_EDGE ( 'NONE', *, *, #117, .F. ) ;
#91 = EDGE_LOOP ( 'NONE', ( #271 ) ) ;
#92 = CYLINDRICAL_SURFACE ( 'NONE', #247, 0.8249999999999994005 ) ;
#93 = PERSON_AND_ORGANIZATION ( #112, #240 ) ;
#94 = EDGE_LOOP ( 'NONE', ( #119 ) ) ;
#95 = PERSON_AND_ORGANIZATION ( #112, #240 ) ;
#96 = DIRECTION ( 'NONE',  ( -3.491481338843133355E-15, 1.224646799147353207E-16, -1.000000000000000000 ) ) ;
#97 =( NAMED_UNIT ( * ) SI_UNIT ( $, .STERADIAN. ) SOLID_ANGLE_UNIT ( ) );
#98 = PERSON_AND_ORGANIZATION ( #112, #240 ) ;
#99 = CARTESIAN_POINT ( 'NONE',  ( 2.504511167915744066E-14, -8.784642641776459355E-16, 7.173205080756893004 ) ) ;
#100 = CARTESIAN_POINT ( 'NONE',  ( 7.182054184001240146E-14, -2.519125498363473338E-15, 20.57022073725572398 ) ) ;
#101 = VERTEX_POINT ( 'NONE', #73 ) ;
#102 = PRODUCT_DEFINITION ( 'UNKNOWN', '', #111, #74 ) ;
#103 = CARTESIAN_POINT ( 'NONE',  ( 5.586370142149013368E-14, -1.959434878635765131E-15, 16.00000000000000000 ) ) ;
#104 = AXIS2_PLACEMENT_3D ( 'NONE', #151, #33, #239 ) ;
#105 = CARTESIAN_POINT ( 'NONE',  ( 7.182054184001240146E-14, -2.519125498363473338E-15, 20.57022073725572398 ) ) ;
#106 = CIRCLE ( 'NONE', #265, 0.7553844939755802734 ) ;
#107 = PERSON_AND_ORGANIZATION ( #112, #240 ) ;
#108 = CIRCLE ( 'NONE', #137, 1.200000000000001732 ) ;
#109 = MECHANICAL_CONTEXT ( 'NONE', #250, 'mechanical' ) ;
#110 = VERTEX_POINT ( 'NONE', #82 ) ;
#111 = PRODUCT_DEFINITION_FORMATION_WITH_SPECIFIED_SOURCE ( 'ANY', '', #32, .NOT_KNOWN. ) ;
#112 = PERSON ( 'UNSPECIFIED', 'UNSPECIFIED', 'UNSPECIFIED', ('UNSPECIFIED'), ('UNSPECIFIED'), ('UNSPECIFIED') ) ;
#113 = MANIFOLD_SOLID_BREP ( 'Corps-Déplacer/Copier1[2]', #157 ) ;
#114 = AXIS2_PLACEMENT_3D ( 'NONE', #217, #152, #191 ) ;
#115 = MANIFOLD_SOLID_BREP ( 'Corps-Déplacer/Copier1[1]', #195 ) ;
#116 = ORIENTED_EDGE ( 'NONE', *, *, #60, .T. ) ;
#117 = EDGE_CURVE ( 'NONE', #199, #199, #286, .T. ) ;
#118 = ORIENTED_EDGE ( 'NONE', *, *, #60, .F. ) ;
#119 = ORIENTED_EDGE ( 'NONE', *, *, #45, .T. ) ;
#120 = PERSON_AND_ORGANIZATION_ROLE ( 'design_owner' ) ;
#121 = CONICAL_SURFACE ( 'NONE', #161, 0.8249999999999990674, 0.5235987755982929315 ) ;
#122 = DIRECTION ( 'NONE',  ( 0.0000000000000000000, 1.000000000000000000, 0.0000000000000000000 ) ) ;
#123 = CYLINDRICAL_SURFACE ( 'NONE', #162, 1.499999999999999112 ) ;
#124 = ADVANCED_FACE ( 'NONE', ( #150, #53 ), #212, .F. ) ;
#125 = DIRECTION ( 'NONE',  ( 3.491481338843133355E-15, -1.224646799147353207E-16, 1.000000000000000000 ) ) ;
#126 = DIRECTION ( 'NONE',  ( -3.491481338843133355E-15, 1.224646799147353207E-16, -1.000000000000000000 ) ) ;
#127 = AXIS2_PLACEMENT_3D ( 'NONE', #99, #126, #196 ) ;
#128 = DIRECTION ( 'NONE',  ( 0.0000000000000000000, -1.000000000000000000, 0.0000000000000000000 ) ) ;
#129 = VERTEX_POINT ( 'NONE', #154 ) ;
#130 = CC_DESIGN_APPROVAL ( #303, ( #102 ) ) ;
#131 = CARTESIAN_POINT ( 'NONE',  ( 5.586370142149013368E-14, -2.168404344971008868E-15, 16.00000000000000000 ) ) ;
#132 = DIRECTION ( 'NONE',  ( -3.491481338843133355E-15, 1.224646799147353207E-16, -1.000000000000000000 ) ) ;
#133 = CIRCLE ( 'NONE', #263, 0.6806624327025945220 ) ;
#134 = UNCERTAINTY_MEASURE_WITH_UNIT (LENGTH_MEASURE( 1.000000000000000082E-05 ), #193, 'distance_accuracy_value', 'NONE');
#135 = CARTESIAN_POINT ( 'NONE',  ( 0.0000000000000000000, 0.0000000000000000000, 0.0000000000000000000 ) ) ;
#136 = CALENDAR_DATE ( 2021, 1, 12 ) ;
#137 = AXIS2_PLACEMENT_3D ( 'NONE', #146, #148, #122 ) ;
#138 = CARTESIAN_POINT ( 'NONE',  ( 7.182054184001240146E-14, 1.499999999999994005, 20.57022073725572398 ) ) ;
#139 = VERTEX_POINT ( 'NONE', #8 ) ;
#140 = APPROVAL_PERSON_ORGANIZATION ( #209, #142, #242 ) ;
#141 = DIRECTION ( 'NONE',  ( -4.275831445896958607E-31, -1.000000000000000000, -1.224646799147353207E-16 ) ) ;
#142 = APPROVAL ( #285, 'UNSPECIFIED' ) ;
#143 = FACE_BOUND ( 'NONE', #289, .T. ) ;
#144 = EDGE_LOOP ( 'NONE', ( #118 ) ) ;
#145 = EDGE_LOOP ( 'NONE', ( #216 ) ) ;
#146 = CARTESIAN_POINT ( 'NONE',  ( 1.745740669421566678E-13, -6.123233995736766085E-15, 50.00000000000000000 ) ) ;
#147 = APPROVAL_ROLE ( '' ) ;
#148 = DIRECTION ( 'NONE',  ( -3.491481338843133355E-15, 1.224646799147353207E-16, -1.000000000000000000 ) ) ;
#149 = DATE_AND_TIME ( #211, #179 ) ;
#150 = FACE_OUTER_BOUND ( 'NONE', #144, .T. ) ;
#151 = CARTESIAN_POINT ( 'NONE',  ( 2.444036937190193349E-14, -8.572527594031473190E-16, 7.000000000000000000 ) ) ;
#152 = DIRECTION ( 'NONE',  ( -3.491481338843133355E-15, 1.224646799147353207E-16, -1.000000000000000000 ) ) ;
#153 = DIRECTION ( 'NONE',  ( -3.491481338843133355E-15, 1.224646799147353207E-16, -1.000000000000000000 ) ) ;
#154 = CARTESIAN_POINT ( 'NONE',  ( 1.735266225405037467E-13, 1.499999999999995559, 49.70000000000000284 ) ) ;
#155 = DATE_TIME_ROLE ( 'classification_date' ) ;
#156 = COORDINATED_UNIVERSAL_TIME_OFFSET ( 1, 0, .AHEAD. ) ;
#157 = CLOSED_SHELL ( 'NONE', ( #65, #295, #297, #236 ) ) ;
#158 = AXIS2_PLACEMENT_3D ( 'NONE', #131, #96, #41 ) ;
#159 = DIRECTION ( 'NONE',  ( 3.491481338843133355E-15, -1.224646799147353207E-16, 1.000000000000000000 ) ) ;
#160 = AXIS2_PLACEMENT_3D ( 'NONE', #224, #16, #230 ) ;
#161 = AXIS2_PLACEMENT_3D ( 'NONE', #44, #125, #267 ) ;
#162 = AXIS2_PLACEMENT_3D ( 'NONE', #277, #248, #270 ) ;
#163 = ORIENTED_EDGE ( 'NONE', *, *, #280, .T. ) ;
#164 = DIRECTION ( 'NONE',  ( 0.0000000000000000000, 1.000000000000000000, 0.0000000000000000000 ) ) ;
#165 = FACE_OUTER_BOUND ( 'NONE', #229, .T. ) ;
#166 = ORIENTED_EDGE ( 'NONE', *, *, #86, .T. ) ;
#167 = DATE_AND_TIME ( #136, #5 ) ;
#168 = EDGE_CURVE ( 'NONE', #284, #284, #133, .T. ) ;
#169 = CARTESIAN_POINT ( 'NONE',  ( 0.0000000000000000000, 0.0000000000000000000, 0.0000000000000000000 ) ) ;
#170 = FACE_OUTER_BOUND ( 'NONE', #19, .T. ) ;
#171 = PRODUCT_DEFINITION_SHAPE ( 'NONE', 'NONE',  #102 ) ;
#172 = CALENDAR_DATE ( 2021, 1, 12 ) ;
#173 = DIRECTION ( 'NONE',  ( -4.275831445896958607E-31, -1.000000000000000000, -1.224646799147353207E-16 ) ) ;
#174 = CARTESIAN_POINT ( 'NONE',  ( -1.892735826383161356E-31, 0.6806624327025945220, -5.421010862427522170E-17 ) ) ;
#175 = DIRECTION ( 'NONE',  ( -3.491481338843133355E-15, 1.224646799147353207E-16, -1.000000000000000000 ) ) ;
#176 = DIRECTION ( 'NONE',  ( 3.491481338843133355E-15, -1.224646799147353207E-16, 1.000000000000000000 ) ) ;
#177 = ADVANCED_FACE ( 'NONE', ( #251, #143 ), #57, .T. ) ;
#178 = AXIS2_PLACEMENT_3D ( 'NONE', #3, #255, #77 ) ;
#179 = LOCAL_TIME ( 15, 3, 30.00000000000000000, #6 ) ;
#180 = CONICAL_SURFACE ( 'NONE', #59, 1.499999999999996669, 0.1745329251994260922 ) ;
#181 = CC_DESIGN_DATE_AND_TIME_ASSIGNMENT ( #149, #235, ( #102 ) ) ;
#182 = EDGE_LOOP ( 'NONE', ( #43 ) ) ;
#183 = EDGE_LOOP ( 'NONE', ( #227 ) ) ;
#184 = EDGE_LOOP ( 'NONE', ( #232 ) ) ;
#185 = LOCAL_TIME ( 15, 3, 30.00000000000000000, #75 ) ;
#186 = EDGE_LOOP ( 'NONE', ( #88 ) ) ;
#187 = CC_DESIGN_PERSON_AND_ORGANIZATION_ASSIGNMENT ( #95, #80, ( #102 ) ) ;
#188 = COORDINATED_UNIVERSAL_TIME_OFFSET ( 1, 0, .AHEAD. ) ;
#189 = DIRECTION ( 'NONE',  ( -3.491481338843133355E-15, 1.224646799147353207E-16, -1.000000000000000000 ) ) ;
#190 = PERSON_AND_ORGANIZATION_ROLE ( 'classification_officer' ) ;
#191 = DIRECTION ( 'NONE',  ( 4.275831445896958607E-31, 1.000000000000000000, 1.224646799147353207E-16 ) ) ;
#192 = CARTESIAN_POINT ( 'NONE',  ( -2.401566830086818800E-31, 8.423562511088121746E-33, -6.878360778759176295E-17 ) ) ;
#193 =( LENGTH_UNIT ( ) NAMED_UNIT ( * ) SI_UNIT ( .MILLI., .METRE. ) );
#194 = FACE_OUTER_BOUND ( 'NONE', #94, .T. ) ;
#195 = CLOSED_SHELL ( 'NONE', ( #7, #228, #89, #124, #34, #210, #177, #46 ) ) ;
#196 = DIRECTION ( 'NONE',  ( 0.0000000000000000000, 1.000000000000000000, 0.0000000000000000000 ) ) ;
#197 = SECURITY_CLASSIFICATION_LEVEL ( 'unclassified' ) ;
#198 = SECURITY_CLASSIFICATION ( '', '', #197 ) ;
#199 = VERTEX_POINT ( 'NONE', #222 ) ;
#200 = COORDINATED_UNIVERSAL_TIME_OFFSET ( 1, 0, .AHEAD. ) ;
#201 = CONICAL_SURFACE ( 'NONE', #40, 0.7249999999999986455, 0.5235987755982921543 ) ;
#202 = VERTEX_POINT ( 'NONE', #84 ) ;
#203 = VERTEX_POINT ( 'NONE', #138 ) ;
#204 = AXIS2_PLACEMENT_3D ( 'NONE', #192, #54, #173 ) ;
#205 = EDGE_LOOP ( 'NONE', ( #206 ) ) ;
#206 = ORIENTED_EDGE ( 'NONE', *, *, #276, .F. ) ;
#207 = EDGE_LOOP ( 'NONE', ( #90 ) ) ;
#208 = FACE_OUTER_BOUND ( 'NONE', #186, .T. ) ;
#209 = PERSON_AND_ORGANIZATION ( #112, #240 ) ;
#210 = ADVANCED_FACE ( 'NONE', ( #299, #165 ), #123, .T. ) ;
#211 = CALENDAR_DATE ( 2021, 1, 12 ) ;
#212 = TOROIDAL_SURFACE ( 'NONE', #158, 2.725000000000000089, 2.000000000000000000 ) ;
#213 = CARTESIAN_POINT ( 'NONE',  ( -4.803133660173637599E-31, 1.684712502217624349E-32, -1.375672155751835259E-16 ) ) ;
#214 = CARTESIAN_POINT ( 'NONE',  ( 2.444036937190193349E-14, 6.186509103480148948E-33, 7.000000000000000000 ) ) ;
#215 = APPROVAL_PERSON_ORGANIZATION ( #278, #220, #244 ) ;
#216 = ORIENTED_EDGE ( 'NONE', *, *, #280, .F. ) ;
#217 = CARTESIAN_POINT ( 'NONE',  ( 1.745740669421566678E-13, 8.998558695971067645E-33, 50.00000000000000000 ) ) ;
#218 = CYLINDRICAL_SURFACE ( 'NONE', #178, 0.7249999999999992006 ) ;
#219 = APPLICATION_PROTOCOL_DEFINITION ( 'international standard', 'config_control_design', 1994, #250 ) ;
#220 = APPROVAL ( #256, 'UNSPECIFIED' ) ;
#221 = CARTESIAN_POINT ( 'NONE',  ( 2.504511167915744066E-14, 0.7249999999999977573, 7.173205080756893004 ) ) ;
#222 = CARTESIAN_POINT ( 'NONE',  ( 8.728703347107833388E-16, 0.8249999999999990674, 0.2500000000000000000 ) ) ;
#223 = LOCAL_TIME ( 15, 3, 30.00000000000000000, #188 ) ;
#224 = CARTESIAN_POINT ( 'NONE',  ( 1.735266225405037467E-13, -6.086494591762345225E-15, 49.70000000000000284 ) ) ;
#225 =( NAMED_UNIT ( * ) PLANE_ANGLE_UNIT ( ) SI_UNIT ( $, .RADIAN. ) );
#226 = CARTESIAN_POINT ( 'NONE',  ( 2.504511167915744066E-14, -8.784642641776459355E-16, 7.173205080756893004 ) ) ;
#227 = ORIENTED_EDGE ( 'NONE', *, *, #117, .T. ) ;
#228 = ADVANCED_FACE ( 'NONE', ( #170, #67 ), #201, .T. ) ;
#229 = EDGE_LOOP ( 'NONE', ( #293 ) ) ;
#230 = DIRECTION ( 'NONE',  ( 0.0000000000000000000, 1.000000000000000000, 0.0000000000000000000 ) ) ;
#231 = CC_DESIGN_PERSON_AND_ORGANIZATION_ASSIGNMENT ( #93, #20, ( #111 ) ) ;
#232 = ORIENTED_EDGE ( 'NONE', *, *, #87, .F. ) ;
#233 = APPROVAL_STATUS ( 'not_yet_approved' ) ;
#234 = AXIS2_PLACEMENT_3D ( 'NONE', #100, #283, #76 ) ;
#235 = DATE_TIME_ROLE ( 'creation_date' ) ;
#236 = ADVANCED_FACE ( 'NONE', ( #12 ), #290, .T. ) ;
#237 = DIRECTION ( 'NONE',  ( 1.000000000000000000, 0.0000000000000000000, 0.0000000000000000000 ) ) ;
#238 = DIRECTION ( 'NONE',  ( 0.0000000000000000000, 1.000000000000000000, 0.0000000000000000000 ) ) ;
#239 = DIRECTION ( 'NONE',  ( 0.0000000000000000000, 1.000000000000000000, 0.0000000000000000000 ) ) ;
#240 = ORGANIZATION ( 'UNSPECIFIED', 'UNSPECIFIED', '' ) ;
#241 = FACE_OUTER_BOUND ( 'NONE', #182, .T. ) ;
#242 = APPROVAL_ROLE ( '' ) ;
#243 = CIRCLE ( 'NONE', #104, 0.8249999999999998446 ) ;
#244 = APPROVAL_ROLE ( '' ) ;
#245 = ORIENTED_EDGE ( 'NONE', *, *, #276, .T. ) ;
#246 = FACE_OUTER_BOUND ( 'NONE', #207, .T. ) ;
#247 = AXIS2_PLACEMENT_3D ( 'NONE', #135, #39, #9 ) ;
#248 = DIRECTION ( 'NONE',  ( -3.491481338843133355E-15, 1.224646799147353207E-16, -1.000000000000000000 ) ) ;
#249 = ORIENTED_EDGE ( 'NONE', *, *, #79, .T. ) ;
#250 = APPLICATION_CONTEXT ( 'configuration controlled 3d designs of mechanical parts and assemblies' ) ;
#251 = FACE_OUTER_BOUND ( 'NONE', #91, .T. ) ;
#252 = SHAPE_DEFINITION_REPRESENTATION ( #171, #298 ) ;
#253 = AXIS2_PLACEMENT_3D ( 'NONE', #214, #176, #1 ) ;
#254 = APPROVAL_DATE_TIME ( #18, #220 ) ;
#255 = DIRECTION ( 'NONE',  ( -3.491481338843133355E-15, 1.224646799147353207E-16, -1.000000000000000000 ) ) ;
#256 = APPROVAL_STATUS ( 'not_yet_approved' ) ;
#257 = PLANE ( 'NONE',  #253 ) ;
#258 = FACE_OUTER_BOUND ( 'NONE', #145, .T. ) ;
#259 = AXIS2_PLACEMENT_3D ( 'NONE', #169, #296, #237 ) ;
#260 = CARTESIAN_POINT ( 'NONE',  ( 2.444036937190193349E-14, 6.186509103480148948E-33, 7.000000000000000000 ) ) ;
#261 = VERTEX_POINT ( 'NONE', #221 ) ;
#262 = APPLICATION_CONTEXT ( 'configuration controlled 3d designs of mechanical parts and assemblies' ) ;
#263 = AXIS2_PLACEMENT_3D ( 'NONE', #213, #189, #63 ) ;
#264 = EDGE_CURVE ( 'NONE', #129, #129, #72, .T. ) ;
#265 = AXIS2_PLACEMENT_3D ( 'NONE', #274, #292, #164 ) ;
#266 = ORIENTED_EDGE ( 'NONE', *, *, #86, .F. ) ;
#267 = DIRECTION ( 'NONE',  ( -4.668921077302395653E-31, -1.000000000000000000, -1.314184451497582738E-16 ) ) ;
#268 = EDGE_LOOP ( 'NONE', ( #166 ) ) ;
#269 = FACE_OUTER_BOUND ( 'NONE', #183, .T. ) ;
#270 = DIRECTION ( 'NONE',  ( 4.275831445896958607E-31, 1.000000000000000000, 1.224646799147353454E-16 ) ) ;
#271 = ORIENTED_EDGE ( 'NONE', *, *, #264, .F. ) ;
#272 = DATE_AND_TIME ( #37, #223 ) ;
#273 = CARTESIAN_POINT ( 'NONE',  ( 1.745740669421566678E-13, -6.123233995736766085E-15, 50.00000000000000000 ) ) ;
#274 = CARTESIAN_POINT ( 'NONE',  ( 5.707628016518647231E-14, -2.001966415627278450E-15, 16.34729635533384240 ) ) ;
#275 = AXIS2_PLACEMENT_3D ( 'NONE', #103, #153, #238 ) ;
#276 = EDGE_CURVE ( 'NONE', #27, #27, #106, .T. ) ;
#277 = CARTESIAN_POINT ( 'NONE',  ( 0.0000000000000000000, 0.0000000000000000000, 0.0000000000000000000 ) ) ;
#278 = PERSON_AND_ORGANIZATION ( #112, #240 ) ;
#279 = DIRECTION ( 'NONE',  ( 4.668921077302395653E-31, 1.000000000000000000, 1.314184451497582738E-16 ) ) ;
#280 = EDGE_CURVE ( 'NONE', #101, #101, #108, .T. ) ;
#281 = DIRECTION ( 'NONE',  ( 0.0000000000000000000, 1.000000000000000000, 0.0000000000000000000 ) ) ;
#282 = CIRCLE ( 'NONE', #275, 0.7249999999999997558 ) ;
#283 = DIRECTION ( 'NONE',  ( -3.491481338843133355E-15, 1.224646799147353207E-16, -1.000000000000000000 ) ) ;
#284 = VERTEX_POINT ( 'NONE', #174 ) ;
#285 = APPROVAL_STATUS ( 'not_yet_approved' ) ;
#286 = CIRCLE ( 'NONE', #85, 0.8249999999999990674 ) ;
#287 = LOCAL_TIME ( 15, 3, 30.00000000000000000, #156 ) ;
#288 = CC_DESIGN_PERSON_AND_ORGANIZATION_ASSIGNMENT ( #300, #190, ( #198 ) ) ;
#289 = EDGE_LOOP ( 'NONE', ( #163 ) ) ;
#290 = PLANE ( 'NONE',  #81 ) ;
#291 = ORIENTED_EDGE ( 'NONE', *, *, #79, .F. ) ;
#292 = DIRECTION ( 'NONE',  ( -3.491481338843133355E-15, 1.224646799147353207E-16, -1.000000000000000000 ) ) ;
#293 = ORIENTED_EDGE ( 'NONE', *, *, #264, .T. ) ;
#294 = APPROVAL_DATE_TIME ( #167, #303 ) ;
#295 = ADVANCED_FACE ( 'NONE', ( #24, #269 ), #121, .T. ) ;
#296 = DIRECTION ( 'NONE',  ( 0.0000000000000000000, 0.0000000000000000000, 1.000000000000000000 ) ) ;
#297 = ADVANCED_FACE ( 'NONE', ( #246, #208 ), #92, .T. ) ;
#298 = ADVANCED_BREP_SHAPE_REPRESENTATION ( '200691', ( #115, #113, #259 ), #31 ) ;
#299 = FACE_OUTER_BOUND ( 'NONE', #62, .T. ) ;
#300 = PERSON_AND_ORGANIZATION ( #112, #240 ) ;
#301 = CIRCLE ( 'NONE', #127, 0.7249999999999986455 ) ;
#302 = PLANE ( 'NONE',  #114 ) ;
#303 = APPROVAL ( #233, 'UNSPECIFIED' ) ;
ENDSEC;
END-ISO-10303-21;
