ISO-10303-21;
HEADER;
FILE_DESCRIPTION (( 'STEP AP203' ),
    '1' );
FILE_NAME ('200690.step',
    '2021-12-02T07:11:29',
    ( '' ),
    ( '' ),
    'SwSTEP 2.0',
    'SolidWorks 2019',
    '' );
FILE_SCHEMA (( 'CONFIG_CONTROL_DESIGN' ));
ENDSEC;

DATA;
#1 = ORIENTED_EDGE ( 'NONE', *, *, #37, .F. ) ;
#2 = CIRCLE ( 'NONE', #149, 1.499999999999996003 ) ;
#3 = DIRECTION ( 'NONE',  ( -4.275831445896959482E-31, -1.000000000000000000, -1.224646799147353454E-16 ) ) ;
#4 = DIRECTION ( 'NONE',  ( 0.0000000000000000000, 1.000000000000000000, 0.0000000000000000000 ) ) ;
#5 = EDGE_LOOP ( 'NONE', ( #75 ) ) ;
#6 = CARTESIAN_POINT ( 'NONE',  ( 3.491481338843133355E-14, -1.224646799147353454E-15, 10.00000000000000000 ) ) ;
#7 = ADVANCED_FACE ( 'NONE', ( #262 ), #288, .F. ) ;
#8 = DIRECTION ( 'NONE',  ( 0.0000000000000000000, 1.000000000000000000, 0.0000000000000000000 ) ) ;
#9 = EDGE_LOOP ( 'NONE', ( #285 ) ) ;
#10 = CONICAL_SURFACE ( 'NONE', #266, 1.349999999999998757, 0.7853981633974433940 ) ;
#11 = CARTESIAN_POINT ( 'NONE',  ( 8.728703347107833388E-14, 1.149999999999997025, 25.00000000000000000 ) ) ;
#12 = CYLINDRICAL_SURFACE ( 'NONE', #71, 1.499999999999999334 ) ;
#13 = DIRECTION ( 'NONE',  ( -3.491481338843133355E-15, 1.224646799147353454E-16, -1.000000000000000000 ) ) ;
#14 = AXIS2_PLACEMENT_3D ( 'NONE', #57, #244, #62 ) ;
#15 = CC_DESIGN_APPROVAL ( #50, ( #234 ) ) ;
#16 = DATE_AND_TIME ( #296, #267 ) ;
#17 = ADVANCED_FACE ( 'NONE', ( #121, #144 ), #12, .T. ) ;
#18 = PERSON_AND_ORGANIZATION ( #202, #170 ) ;
#19 = FACE_OUTER_BOUND ( 'NONE', #52, .T. ) ;
#20 = PRODUCT_DEFINITION_FORMATION_WITH_SPECIFIED_SOURCE ( 'ANY', '', #46, .NOT_KNOWN. ) ;
#21 = APPROVAL_ROLE ( '' ) ;
#22 =( GEOMETRIC_REPRESENTATION_CONTEXT ( 3 ) GLOBAL_UNCERTAINTY_ASSIGNED_CONTEXT ( ( #188 ) ) GLOBAL_UNIT_ASSIGNED_CONTEXT ( ( #268, #80, #34 ) ) REPRESENTATION_CONTEXT ( 'NONE', 'WORKASPACE' ) );
#23 = ADVANCED_FACE ( 'NONE', ( #172, #31 ), #264, .T. ) ;
#24 = CYLINDRICAL_SURFACE ( 'NONE', #153, 1.349999999999999423 ) ;
#25 = ORIENTED_EDGE ( 'NONE', *, *, #97, .F. ) ;
#26 = DIRECTION ( 'NONE',  ( -3.491481338843133355E-15, 1.224646799147353454E-16, -1.000000000000000000 ) ) ;
#27 = AXIS2_PLACEMENT_3D ( 'NONE', #98, #116, #114 ) ;
#28 = CARTESIAN_POINT ( 'NONE',  ( 2.129803616694311221E-13, 8.998558695971062171E-33, 61.00000000000000000 ) ) ;
#29 = AXIS2_PLACEMENT_3D ( 'NONE', #119, #290, #200 ) ;
#30 = EDGE_LOOP ( 'NONE', ( #191 ) ) ;
#31 = FACE_OUTER_BOUND ( 'NONE', #302, .T. ) ;
#32 = EDGE_LOOP ( 'NONE', ( #47 ) ) ;
#33 = CARTESIAN_POINT ( 'NONE',  ( 9.482837466738113547E-14, 1.499999999999992673, 27.15992596391809499 ) ) ;
#34 =( NAMED_UNIT ( * ) SI_UNIT ( $, .STERADIAN. ) SOLID_ANGLE_UNIT ( ) );
#35 = DIRECTION ( 'NONE',  ( -3.491481338843133355E-15, 1.224646799147353454E-16, -1.000000000000000000 ) ) ;
#36 = EDGE_LOOP ( 'NONE', ( #240 ) ) ;
#37 = EDGE_CURVE ( 'NONE', #294, #294, #228, .T. ) ;
#38 = PERSON_AND_ORGANIZATION ( #202, #170 ) ;
#39 = DIRECTION ( 'NONE',  ( 3.491481338843133355E-15, -1.224646799147353454E-16, 1.000000000000000000 ) ) ;
#40 = PERSON_AND_ORGANIZATION ( #202, #170 ) ;
#41 = DIRECTION ( 'NONE',  ( 0.0000000000000000000, 1.000000000000000000, 0.0000000000000000000 ) ) ;
#42 = APPROVAL_DATE_TIME ( #232, #50 ) ;
#43 = CARTESIAN_POINT ( 'NONE',  ( 9.482837466738113547E-14, -3.326131639679139478E-15, 27.15992596391809499 ) ) ;
#44 = PERSON_AND_ORGANIZATION ( #202, #170 ) ;
#45 = CLOSED_SHELL ( 'NONE', ( #66, #140, #227, #159 ) ) ;
#46 = PRODUCT ( '200690', '200690', '', ( #137 ) ) ;
#47 = ORIENTED_EDGE ( 'NONE', *, *, #278, .F. ) ;
#48 = FACE_OUTER_BOUND ( 'NONE', #175, .T. ) ;
#49 = PRODUCT_DEFINITION_SHAPE ( 'NONE', 'NONE',  #234 ) ;
#50 = APPROVAL ( #108, 'UNSPECIFIED' ) ;
#51 = EDGE_LOOP ( 'NONE', ( #96 ) ) ;
#52 = EDGE_LOOP ( 'NONE', ( #221 ) ) ;
#53 = AXIS2_PLACEMENT_3D ( 'NONE', #166, #168, #54 ) ;
#54 = DIRECTION ( 'NONE',  ( 0.0000000000000000000, 1.000000000000000000, 0.0000000000000000000 ) ) ;
#55 = LOCAL_TIME ( 8, 11, 29.00000000000000000, #64 ) ;
#56 = ORIENTED_EDGE ( 'NONE', *, *, #278, .T. ) ;
#57 = CARTESIAN_POINT ( 'NONE',  ( 0.0000000000000000000, 0.0000000000000000000, 0.0000000000000000000 ) ) ;
#58 = EDGE_CURVE ( 'NONE', #205, #205, #2, .T. ) ;
#59 = VERTEX_POINT ( 'NONE', #171 ) ;
#60 = CC_DESIGN_DATE_AND_TIME_ASSIGNMENT ( #206, #299, ( #234 ) ) ;
#61 = VERTEX_POINT ( 'NONE', #247 ) ;
#62 = DIRECTION ( 'NONE',  ( 4.275831445896959482E-31, 1.000000000000000000, 1.224646799147353454E-16 ) ) ;
#63 = PERSON_AND_ORGANIZATION_ROLE ( 'creator' ) ;
#64 = COORDINATED_UNIVERSAL_TIME_OFFSET ( 1, 0, .AHEAD. ) ;
#65 = MANIFOLD_SOLID_BREP ( 'Corps-Déplacer/Copier1[2]', #45 ) ;
#66 = ADVANCED_FACE ( 'NONE', ( #19 ), #163, .F. ) ;
#67 = SECURITY_CLASSIFICATION_LEVEL ( 'unclassified' ) ;
#68 = AXIS2_PLACEMENT_3D ( 'NONE', #6, #300, #139 ) ;
#69 = COORDINATED_UNIVERSAL_TIME_OFFSET ( 1, 0, .AHEAD. ) ;
#70 = EDGE_LOOP ( 'NONE', ( #25 ) ) ;
#71 = AXIS2_PLACEMENT_3D ( 'NONE', #101, #174, #241 ) ;
#72 = FACE_OUTER_BOUND ( 'NONE', #70, .T. ) ;
#73 = ADVANCED_BREP_SHAPE_REPRESENTATION ( '200690', ( #161, #65, #29 ), #22 ) ;
#74 = CARTESIAN_POINT ( 'NONE',  ( 2.119329172677781757E-13, -7.433606070824434221E-15, 60.69999999999999574 ) ) ;
#75 = ORIENTED_EDGE ( 'NONE', *, *, #291, .F. ) ;
#76 = CIRCLE ( 'NONE', #53, 1.149999999999998135 ) ;
#77 = SECURITY_CLASSIFICATION ( '', '', #67 ) ;
#78 = EDGE_CURVE ( 'NONE', #246, #246, #158, .T. ) ;
#79 = DIRECTION ( 'NONE',  ( 0.0000000000000000000, 1.000000000000000000, 0.0000000000000000000 ) ) ;
#80 =( NAMED_UNIT ( * ) PLANE_ANGLE_UNIT ( ) SI_UNIT ( $, .RADIAN. ) );
#81 = APPLICATION_PROTOCOL_DEFINITION ( 'international standard', 'config_control_design', 1994, #82 ) ;
#82 = APPLICATION_CONTEXT ( 'configuration controlled 3d designs of mechanical parts and assemblies' ) ;
#83 = CARTESIAN_POINT ( 'NONE',  ( 8.728703347107827472E-16, -3.061616997868381785E-17, 0.2499999999999998335 ) ) ;
#84 = PERSON_AND_ORGANIZATION ( #202, #170 ) ;
#85 = AXIS2_PLACEMENT_3D ( 'NONE', #237, #113, #280 ) ;
#86 = APPROVAL_DATE_TIME ( #16, #248 ) ;
#87 = PERSON_AND_ORGANIZATION_ROLE ( 'design_supplier' ) ;
#88 = FACE_OUTER_BOUND ( 'NONE', #142, .T. ) ;
#89 = EDGE_LOOP ( 'NONE', ( #56 ) ) ;
#90 = DIRECTION ( 'NONE',  ( 4.275831445896959482E-31, 1.000000000000000000, 1.224646799147353454E-16 ) ) ;
#91 = EDGE_CURVE ( 'NONE', #223, #223, #198, .T. ) ;
#92 = FACE_BOUND ( 'NONE', #36, .T. ) ;
#93 = FACE_BOUND ( 'NONE', #214, .T. ) ;
#94 = FACE_BOUND ( 'NONE', #282, .T. ) ;
#95 = ORIENTED_EDGE ( 'NONE', *, *, #201, .T. ) ;
#96 = ORIENTED_EDGE ( 'NONE', *, *, #201, .F. ) ;
#97 = EDGE_CURVE ( 'NONE', #269, #269, #193, .T. ) ;
#98 = CARTESIAN_POINT ( 'NONE',  ( 2.129803616694311221E-13, -7.470345474798856659E-15, 61.00000000000000000 ) ) ;
#99 = CARTESIAN_POINT ( 'NONE',  ( 3.612429800294234159E-14, 1.149999999999997025, 10.34641016151378423 ) ) ;
#100 = CARTESIAN_POINT ( 'NONE',  ( 8.728703347107833388E-16, 1.349999999999998757, 0.2500000000000000000 ) ) ;
#101 = CARTESIAN_POINT ( 'NONE',  ( 0.0000000000000000000, 0.0000000000000000000, 0.0000000000000000000 ) ) ;
#102 = FACE_BOUND ( 'NONE', #89, .T. ) ;
#103 = APPROVAL_STATUS ( 'not_yet_approved' ) ;
#104 = AXIS2_PLACEMENT_3D ( 'NONE', #118, #219, #8 ) ;
#105 = APPROVAL_PERSON_ORGANIZATION ( #134, #248, #21 ) ;
#106 = CONICAL_SURFACE ( 'NONE', #155, 1.149999999999998135, 0.5235987755982929315 ) ;
#107 = CALENDAR_DATE ( 2021, 2, 12 ) ;
#108 = APPROVAL_STATUS ( 'not_yet_approved' ) ;
#109 = APPROVAL_ROLE ( '' ) ;
#110 = CIRCLE ( 'NONE', #68, 1.350000000000000089 ) ;
#111 = ORIENTED_EDGE ( 'NONE', *, *, #97, .T. ) ;
#112 = CARTESIAN_POINT ( 'NONE',  ( 0.0000000000000000000, 0.0000000000000000000, 0.0000000000000000000 ) ) ;
#113 = DIRECTION ( 'NONE',  ( -3.491481338843133355E-15, 1.224646799147353454E-16, -1.000000000000000000 ) ) ;
#114 = DIRECTION ( 'NONE',  ( 0.0000000000000000000, 1.000000000000000000, 0.0000000000000000000 ) ) ;
#115 = CC_DESIGN_SECURITY_CLASSIFICATION ( #77, ( #20 ) ) ;
#116 = DIRECTION ( 'NONE',  ( -3.491481338843133355E-15, 1.224646799147353454E-16, -1.000000000000000000 ) ) ;
#117 = CARTESIAN_POINT ( 'NONE',  ( 8.728703347107827472E-16, -3.061616997868381785E-17, 0.2499999999999998335 ) ) ;
#118 = CARTESIAN_POINT ( 'NONE',  ( 8.849961221477468513E-14, -3.104148534859897150E-15, 25.34729635533384240 ) ) ;
#119 = CARTESIAN_POINT ( 'NONE',  ( 0.0000000000000000000, 0.0000000000000000000, 0.0000000000000000000 ) ) ;
#120 = CC_DESIGN_PERSON_AND_ORGANIZATION_ASSIGNMENT ( #44, #210, ( #234 ) ) ;
#121 = FACE_OUTER_BOUND ( 'NONE', #9, .T. ) ;
#122 = CLOSED_SHELL ( 'NONE', ( #7, #301, #23, #272, #125, #17, #187, #180 ) ) ;
#123 = APPLICATION_CONTEXT ( 'configuration controlled 3d designs of mechanical parts and assemblies' ) ;
#124 = VERTEX_POINT ( 'NONE', #99 ) ;
#125 = ADVANCED_FACE ( 'NONE', ( #94, #157 ), #235, .T. ) ;
#126 = CARTESIAN_POINT ( 'NONE',  ( 3.491481338843133355E-14, 1.012337853296752380E-32, 10.00000000000000000 ) ) ;
#127 = CARTESIAN_POINT ( 'NONE',  ( 3.491481338843133355E-14, -1.224646799147353454E-15, 10.00000000000000000 ) ) ;
#128 = CIRCLE ( 'NONE', #186, 1.500000000000002887 ) ;
#129 = CALENDAR_DATE ( 2021, 2, 12 ) ;
#130 = DIRECTION ( 'NONE',  ( 0.0000000000000000000, -1.000000000000000000, 0.0000000000000000000 ) ) ;
#131 = APPROVAL_DATE_TIME ( #274, #190 ) ;
#132 = PRODUCT_RELATED_PRODUCT_CATEGORY ( 'detail', '', ( #46 ) ) ;
#133 = DIRECTION ( 'NONE',  ( -3.491481338843133355E-15, 1.224646799147353454E-16, -1.000000000000000000 ) ) ;
#134 = PERSON_AND_ORGANIZATION ( #202, #170 ) ;
#135 = AXIS2_PLACEMENT_3D ( 'NONE', #239, #189, #3 ) ;
#136 = COORDINATED_UNIVERSAL_TIME_OFFSET ( 1, 0, .AHEAD. ) ;
#137 = MECHANICAL_CONTEXT ( 'NONE', #123, 'mechanical' ) ;
#138 = AXIS2_PLACEMENT_3D ( 'NONE', #28, #26, #283 ) ;
#139 = DIRECTION ( 'NONE',  ( 0.0000000000000000000, 1.000000000000000000, 0.0000000000000000000 ) ) ;
#140 = ADVANCED_FACE ( 'NONE', ( #93, #258 ), #10, .T. ) ;
#141 = ORIENTED_EDGE ( 'NONE', *, *, #37, .T. ) ;
#142 = EDGE_LOOP ( 'NONE', ( #1 ) ) ;
#143 = AXIS2_PLACEMENT_3D ( 'NONE', #213, #195, #236 ) ;
#144 = FACE_OUTER_BOUND ( 'NONE', #242, .T. ) ;
#145 = LOCAL_TIME ( 8, 11, 29.00000000000000000, #271 ) ;
#146 = CARTESIAN_POINT ( 'NONE',  ( 6.653000367812306052E-31, -2.333558399560892942E-32, 1.905495038394422580E-16 ) ) ;
#147 = CARTESIAN_POINT ( 'NONE',  ( 3.491481338843133355E-14, 1.349999999999998757, 10.00000000000000000 ) ) ;
#148 = EDGE_LOOP ( 'NONE', ( #217 ) ) ;
#149 = AXIS2_PLACEMENT_3D ( 'NONE', #251, #133, #41 ) ;
#150 = LOCAL_TIME ( 8, 11, 29.00000000000000000, #136 ) ;
#151 = CARTESIAN_POINT ( 'NONE',  ( 3.612429800294234159E-14, -1.267069808696350687E-15, 10.34641016151378423 ) ) ;
#152 = PERSON_AND_ORGANIZATION_ROLE ( 'classification_officer' ) ;
#153 = AXIS2_PLACEMENT_3D ( 'NONE', #112, #303, #90 ) ;
#154 = DIRECTION ( 'NONE',  ( -4.275831445896959482E-31, -1.000000000000000000, -1.224646799147353454E-16 ) ) ;
#155 = AXIS2_PLACEMENT_3D ( 'NONE', #151, #35, #79 ) ;
#156 = PERSON_AND_ORGANIZATION ( #202, #170 ) ;
#157 = FACE_OUTER_BOUND ( 'NONE', #256, .T. ) ;
#158 = CIRCLE ( 'NONE', #104, 1.180384493975580540 ) ;
#159 = ADVANCED_FACE ( 'NONE', ( #218 ), #253, .T. ) ;
#160 = APPROVAL_PERSON_ORGANIZATION ( #40, #50, #109 ) ;
#161 = MANIFOLD_SOLID_BREP ( 'Corps-Déplacer/Copier1[1]', #122 ) ;
#162 = AXIS2_PLACEMENT_3D ( 'NONE', #127, #173, #263 ) ;
#163 = PLANE ( 'NONE',  #297 ) ;
#164 = ORIENTED_EDGE ( 'NONE', *, *, #291, .T. ) ;
#165 = DESIGN_CONTEXT ( 'detailed design', #82, 'design' ) ;
#166 = CARTESIAN_POINT ( 'NONE',  ( 3.612429800294234159E-14, -1.267069808696350687E-15, 10.34641016151378423 ) ) ;
#167 = CARTESIAN_POINT ( 'NONE',  ( 3.326500183906153026E-31, -1.166779199780446471E-32, 9.527475191972112901E-17 ) ) ;
#168 = DIRECTION ( 'NONE',  ( -3.491481338843133355E-15, 1.224646799147353454E-16, -1.000000000000000000 ) ) ;
#169 = AXIS2_PLACEMENT_3D ( 'NONE', #196, #281, #4 ) ;
#170 = ORGANIZATION ( 'UNSPECIFIED', 'UNSPECIFIED', '' ) ;
#171 = CARTESIAN_POINT ( 'NONE',  ( 1.135641495829896858E-30, 1.100000000000001643, 3.252606517456513302E-16 ) ) ;
#172 = FACE_OUTER_BOUND ( 'NONE', #32, .T. ) ;
#173 = DIRECTION ( 'NONE',  ( -3.491481338843133355E-15, 1.224646799147353454E-16, -1.000000000000000000 ) ) ;
#174 = DIRECTION ( 'NONE',  ( -3.491481338843133355E-15, 1.224646799147353454E-16, -1.000000000000000000 ) ) ;
#175 = EDGE_LOOP ( 'NONE', ( #164 ) ) ;
#176 = CONICAL_SURFACE ( 'NONE', #143, 1.200000000000002842, 0.7853981633974453924 ) ;
#177 = VERTEX_POINT ( 'NONE', #147 ) ;
#178 = CC_DESIGN_DATE_AND_TIME_ASSIGNMENT ( #250, #185, ( #77 ) ) ;
#179 = CARTESIAN_POINT ( 'NONE',  ( 8.849961221477468513E-14, 1.180384493975577431, 25.34729635533384240 ) ) ;
#180 = ADVANCED_FACE ( 'NONE', ( #277 ), #215, .F. ) ;
#181 = DIRECTION ( 'NONE',  ( -3.491481338843133355E-15, 1.224646799147353454E-16, -1.000000000000000000 ) ) ;
#182 = CALENDAR_DATE ( 2021, 2, 12 ) ;
#183 = APPROVAL_PERSON_ORGANIZATION ( #38, #190, #276 ) ;
#184 = PERSON_AND_ORGANIZATION_ROLE ( 'design_owner' ) ;
#185 = DATE_TIME_ROLE ( 'classification_date' ) ;
#186 = AXIS2_PLACEMENT_3D ( 'NONE', #74, #192, #279 ) ;
#187 = ADVANCED_FACE ( 'NONE', ( #212, #92 ), #176, .T. ) ;
#188 = UNCERTAINTY_MEASURE_WITH_UNIT (LENGTH_MEASURE( 1.000000000000000082E-05 ), #268, 'distance_accuracy_value', 'NONE');
#189 = DIRECTION ( 'NONE',  ( 3.491481338843133355E-15, -1.224646799147353454E-16, 1.000000000000000000 ) ) ;
#190 = APPROVAL ( #103, 'UNSPECIFIED' ) ;
#191 = ORIENTED_EDGE ( 'NONE', *, *, #252, .F. ) ;
#192 = DIRECTION ( 'NONE',  ( -3.491481338843133355E-15, 1.224646799147353454E-16, -1.000000000000000000 ) ) ;
#193 = CIRCLE ( 'NONE', #169, 1.149999999999999911 ) ;
#194 = CC_DESIGN_APPROVAL ( #190, ( #77 ) ) ;
#195 = DIRECTION ( 'NONE',  ( -3.491481338843133355E-15, 1.224646799147353454E-16, -1.000000000000000000 ) ) ;
#196 = CARTESIAN_POINT ( 'NONE',  ( 8.728703347107833388E-14, -3.061616997868383831E-15, 25.00000000000000000 ) ) ;
#197 = EDGE_LOOP ( 'NONE', ( #95 ) ) ;
#198 = CIRCLE ( 'NONE', #27, 1.200000000000002842 ) ;
#199 = ORIENTED_EDGE ( 'NONE', *, *, #58, .T. ) ;
#200 = DIRECTION ( 'NONE',  ( 1.000000000000000000, 0.0000000000000000000, 0.0000000000000000000 ) ) ;
#201 = EDGE_CURVE ( 'NONE', #61, #61, #110, .T. ) ;
#202 = PERSON ( 'UNSPECIFIED', 'UNSPECIFIED', 'UNSPECIFIED', ('UNSPECIFIED'), ('UNSPECIFIED'), ('UNSPECIFIED') ) ;
#203 = ORIENTED_EDGE ( 'NONE', *, *, #286, .F. ) ;
#204 = CARTESIAN_POINT ( 'NONE',  ( 2.129803616694311221E-13, 1.199999999999995515, 61.00000000000000000 ) ) ;
#205 = VERTEX_POINT ( 'NONE', #33 ) ;
#206 = DATE_AND_TIME ( #129, #207 ) ;
#207 = LOCAL_TIME ( 8, 11, 29.00000000000000000, #208 ) ;
#208 = COORDINATED_UNIVERSAL_TIME_OFFSET ( 1, 0, .AHEAD. ) ;
#209 = DIRECTION ( 'NONE',  ( 3.491481338843133355E-15, -1.224646799147353454E-16, 1.000000000000000000 ) ) ;
#210 = PERSON_AND_ORGANIZATION_ROLE ( 'creator' ) ;
#211 = AXIS2_PLACEMENT_3D ( 'NONE', #83, #181, #293 ) ;
#212 = FACE_OUTER_BOUND ( 'NONE', #30, .T. ) ;
#213 = CARTESIAN_POINT ( 'NONE',  ( 2.129803616694311221E-13, -7.470345474798856659E-15, 61.00000000000000000 ) ) ;
#214 = EDGE_LOOP ( 'NONE', ( #203 ) ) ;
#215 = PLANE ( 'NONE',  #138 ) ;
#216 = ORIENTED_EDGE ( 'NONE', *, *, #252, .T. ) ;
#217 = ORIENTED_EDGE ( 'NONE', *, *, #78, .T. ) ;
#218 = FACE_OUTER_BOUND ( 'NONE', #5, .T. ) ;
#219 = DIRECTION ( 'NONE',  ( -3.491481338843133355E-15, 1.224646799147353454E-16, -1.000000000000000000 ) ) ;
#220 = TOROIDAL_SURFACE ( 'NONE', #85, 3.149999999999999911, 2.000000000000000444 ) ;
#221 = ORIENTED_EDGE ( 'NONE', *, *, #286, .T. ) ;
#222 = CARTESIAN_POINT ( 'NONE',  ( 2.119329172677781757E-13, 1.499999999999995559, 60.69999999999999574 ) ) ;
#223 = VERTEX_POINT ( 'NONE', #204 ) ;
#224 = DIRECTION ( 'NONE',  ( -4.275831445896959482E-31, -1.000000000000000000, -1.224646799147353454E-16 ) ) ;
#225 = AXIS2_PLACEMENT_3D ( 'NONE', #146, #13, #295 ) ;
#226 = APPLICATION_PROTOCOL_DEFINITION ( 'international standard', 'config_control_design', 1994, #123 ) ;
#227 = ADVANCED_FACE ( 'NONE', ( #88, #48 ), #24, .T. ) ;
#228 = CIRCLE ( 'NONE', #211, 1.349999999999998757 ) ;
#229 = CALENDAR_DATE ( 2021, 2, 12 ) ;
#230 = CC_DESIGN_PERSON_AND_ORGANIZATION_ASSIGNMENT ( #156, #63, ( #20 ) ) ;
#231 = CC_DESIGN_PERSON_AND_ORGANIZATION_ASSIGNMENT ( #18, #87, ( #20 ) ) ;
#232 = DATE_AND_TIME ( #182, #145 ) ;
#233 = PERSON_AND_ORGANIZATION ( #202, #170 ) ;
#234 = PRODUCT_DEFINITION ( 'UNKNOWN', '', #20, #165 ) ;
#235 = CONICAL_SURFACE ( 'NONE', #275, 1.499999999999996003, 0.1745329251994262865 ) ;
#236 = DIRECTION ( 'NONE',  ( 0.0000000000000000000, 1.000000000000000000, 0.0000000000000000000 ) ) ;
#237 = CARTESIAN_POINT ( 'NONE',  ( 8.728703347107833388E-14, -3.035766082959412415E-15, 25.00000000000000000 ) ) ;
#238 = CC_DESIGN_PERSON_AND_ORGANIZATION_ASSIGNMENT ( #233, #184, ( #46 ) ) ;
#239 = CARTESIAN_POINT ( 'NONE',  ( 3.491481338843133355E-14, 1.012337853296752380E-32, 10.00000000000000000 ) ) ;
#240 = ORIENTED_EDGE ( 'NONE', *, *, #91, .T. ) ;
#241 = DIRECTION ( 'NONE',  ( 4.275831445896960358E-31, 1.000000000000000000, 1.224646799147353454E-16 ) ) ;
#242 = EDGE_LOOP ( 'NONE', ( #216 ) ) ;
#243 = FACE_OUTER_BOUND ( 'NONE', #51, .T. ) ;
#244 = DIRECTION ( 'NONE',  ( -3.491481338843133355E-15, 1.224646799147353454E-16, -1.000000000000000000 ) ) ;
#245 = ORIENTED_EDGE ( 'NONE', *, *, #91, .F. ) ;
#246 = VERTEX_POINT ( 'NONE', #179 ) ;
#247 = CARTESIAN_POINT ( 'NONE',  ( 3.491481338843133355E-14, 1.349999999999998757, 10.00000000000000000 ) ) ;
#248 = APPROVAL ( #273, 'UNSPECIFIED' ) ;
#249 = CIRCLE ( 'NONE', #225, 1.100000000000001643 ) ;
#250 = DATE_AND_TIME ( #107, #150 ) ;
#251 = CARTESIAN_POINT ( 'NONE',  ( 9.482837466738113547E-14, -3.326131639679139478E-15, 27.15992596391809499 ) ) ;
#252 = EDGE_CURVE ( 'NONE', #265, #265, #128, .T. ) ;
#253 = PLANE ( 'NONE',  #135 ) ;
#254 = DIRECTION ( 'NONE',  ( 3.491481338843133355E-15, -1.224646799147353454E-16, 1.000000000000000000 ) ) ;
#255 = CIRCLE ( 'NONE', #162, 1.350000000000000089 ) ;
#256 = EDGE_LOOP ( 'NONE', ( #199 ) ) ;
#257 = DIRECTION ( 'NONE',  ( -4.279844320860528400E-31, -1.000000000000000000, -1.204669080539450576E-16 ) ) ;
#258 = FACE_OUTER_BOUND ( 'NONE', #284, .T. ) ;
#259 = ORIENTED_EDGE ( 'NONE', *, *, #78, .F. ) ;
#260 = FACE_OUTER_BOUND ( 'NONE', #148, .T. ) ;
#261 = EDGE_LOOP ( 'NONE', ( #245 ) ) ;
#262 = FACE_OUTER_BOUND ( 'NONE', #197, .T. ) ;
#263 = DIRECTION ( 'NONE',  ( 0.0000000000000000000, 1.000000000000000000, 0.0000000000000000000 ) ) ;
#264 = CYLINDRICAL_SURFACE ( 'NONE', #14, 1.149999999999999023 ) ;
#265 = VERTEX_POINT ( 'NONE', #222 ) ;
#266 = AXIS2_PLACEMENT_3D ( 'NONE', #117, #254, #257 ) ;
#267 = LOCAL_TIME ( 8, 11, 29.00000000000000000, #69 ) ;
#268 =( LENGTH_UNIT ( ) NAMED_UNIT ( * ) SI_UNIT ( .MILLI., .METRE. ) );
#269 = VERTEX_POINT ( 'NONE', #11 ) ;
#270 = CC_DESIGN_PERSON_AND_ORGANIZATION_ASSIGNMENT ( #84, #152, ( #77 ) ) ;
#271 = COORDINATED_UNIVERSAL_TIME_OFFSET ( 1, 0, .AHEAD. ) ;
#272 = ADVANCED_FACE ( 'NONE', ( #72, #260 ), #220, .F. ) ;
#273 = APPROVAL_STATUS ( 'not_yet_approved' ) ;
#274 = DATE_AND_TIME ( #229, #55 ) ;
#275 = AXIS2_PLACEMENT_3D ( 'NONE', #43, #39, #130 ) ;
#276 = APPROVAL_ROLE ( '' ) ;
#277 = FACE_OUTER_BOUND ( 'NONE', #261, .T. ) ;
#278 = EDGE_CURVE ( 'NONE', #124, #124, #76, .T. ) ;
#279 = DIRECTION ( 'NONE',  ( 0.0000000000000000000, 1.000000000000000000, 0.0000000000000000000 ) ) ;
#280 = DIRECTION ( 'NONE',  ( 4.275831445896959482E-31, 1.000000000000000000, 1.224646799147353454E-16 ) ) ;
#281 = DIRECTION ( 'NONE',  ( -3.491481338843133355E-15, 1.224646799147353454E-16, -1.000000000000000000 ) ) ;
#282 = EDGE_LOOP ( 'NONE', ( #259 ) ) ;
#283 = DIRECTION ( 'NONE',  ( 4.275831445896959482E-31, 1.000000000000000000, 1.224646799147353454E-16 ) ) ;
#284 = EDGE_LOOP ( 'NONE', ( #141 ) ) ;
#285 = ORIENTED_EDGE ( 'NONE', *, *, #58, .F. ) ;
#286 = EDGE_CURVE ( 'NONE', #59, #59, #249, .T. ) ;
#287 = CC_DESIGN_APPROVAL ( #248, ( #20 ) ) ;
#288 = PLANE ( 'NONE',  #292 ) ;
#289 = DIRECTION ( 'NONE',  ( 3.491481338843133355E-15, -1.224646799147353454E-16, 1.000000000000000000 ) ) ;
#290 = DIRECTION ( 'NONE',  ( 0.0000000000000000000, 0.0000000000000000000, 1.000000000000000000 ) ) ;
#291 = EDGE_CURVE ( 'NONE', #177, #177, #255, .T. ) ;
#292 = AXIS2_PLACEMENT_3D ( 'NONE', #126, #289, #224 ) ;
#293 = DIRECTION ( 'NONE',  ( 4.279844320860528400E-31, 1.000000000000000000, 1.204669080539450576E-16 ) ) ;
#294 = VERTEX_POINT ( 'NONE', #100 ) ;
#295 = DIRECTION ( 'NONE',  ( 4.275831445896959482E-31, 1.000000000000000000, 1.224646799147353454E-16 ) ) ;
#296 = CALENDAR_DATE ( 2021, 2, 12 ) ;
#297 = AXIS2_PLACEMENT_3D ( 'NONE', #167, #209, #154 ) ;
#298 = SHAPE_DEFINITION_REPRESENTATION ( #49, #73 ) ;
#299 = DATE_TIME_ROLE ( 'creation_date' ) ;
#300 = DIRECTION ( 'NONE',  ( -3.491481338843133355E-15, 1.224646799147353454E-16, -1.000000000000000000 ) ) ;
#301 = ADVANCED_FACE ( 'NONE', ( #243, #102 ), #106, .T. ) ;
#302 = EDGE_LOOP ( 'NONE', ( #111 ) ) ;
#303 = DIRECTION ( 'NONE',  ( -3.491481338843133355E-15, 1.224646799147353454E-16, -1.000000000000000000 ) ) ;
ENDSEC;
END-ISO-10303-21;
