ISO-10303-21;
HEADER;
FILE_DESCRIPTION (( 'STEP AP203' ),
    '1' );
FILE_NAME ('200689.step',
    '2021-12-02T07:11:29',
    ( '' ),
    ( '' ),
    'SwSTEP 2.0',
    'SolidWorks 2019',
    '' );
FILE_SCHEMA (( 'CONFIG_CONTROL_DESIGN' ));
ENDSEC;

DATA;
#1 = PERSON_AND_ORGANIZATION_ROLE ( 'design_supplier' ) ;
#2 = CIRCLE ( 'NONE', #30, 1.175000000000000266 ) ;
#3 = EDGE_LOOP ( 'NONE', ( #216 ) ) ;
#4 = MANIFOLD_SOLID_BREP ( 'Corps-Déplacer/Copier1[2]', #188 ) ;
#5 = TOROIDAL_SURFACE ( 'NONE', #196, 3.175000000000000266, 2.000000000000000000 ) ;
#6 = AXIS2_PLACEMENT_3D ( 'NONE', #86, #162, #106 ) ;
#7 = DIRECTION ( 'NONE',  ( 3.491481338843133355E-15, -1.224646799147353454E-16, 1.000000000000000000 ) ) ;
#8 = EDGE_LOOP ( 'NONE', ( #124 ) ) ;
#9 = APPLICATION_CONTEXT ( 'configuration controlled 3d designs of mechanical parts and assemblies' ) ;
#10 = PRODUCT_DEFINITION_FORMATION_WITH_SPECIFIED_SOURCE ( 'ANY', '', #54, .NOT_KNOWN. ) ;
#11 = CARTESIAN_POINT ( 'NONE',  ( 8.728703347107829444E-16, -3.061616997868382402E-17, 0.2499999999999998890 ) ) ;
#12 = EDGE_LOOP ( 'NONE', ( #170 ) ) ;
#13 = EDGE_CURVE ( 'NONE', #278, #278, #77, .T. ) ;
#14 = AXIS2_PLACEMENT_3D ( 'NONE', #272, #225, #159 ) ;
#15 = EDGE_LOOP ( 'NONE', ( #120 ) ) ;
#16 = CARTESIAN_POINT ( 'NONE',  ( 3.491481338843133355E-14, 1.031084850580025463E-32, 10.00000000000000000 ) ) ;
#17 = CONICAL_SURFACE ( 'NONE', #74, 1.174999999999998490, 0.5235987755982920433 ) ;
#18 = CARTESIAN_POINT ( 'NONE',  ( 8.728703347107833388E-14, -3.061616997868383831E-15, 25.00000000000000000 ) ) ;
#19 = DIRECTION ( 'NONE',  ( -4.275831445896959482E-31, -1.000000000000000000, -1.224646799147353454E-16 ) ) ;
#20 = DIRECTION ( 'NONE',  ( 4.275831445896960358E-31, 1.000000000000000000, 1.224646799147353454E-16 ) ) ;
#21 = MECHANICAL_CONTEXT ( 'NONE', #9, 'mechanical' ) ;
#22 = ADVANCED_FACE ( 'NONE', ( #101, #26 ), #140, .T. ) ;
#23 = APPROVAL_STATUS ( 'not_yet_approved' ) ;
#24 = PERSON_AND_ORGANIZATION_ROLE ( 'design_owner' ) ;
#25 = APPROVAL_STATUS ( 'not_yet_approved' ) ;
#26 = FACE_BOUND ( 'NONE', #34, .T. ) ;
#27 = DIRECTION ( 'NONE',  ( 0.0000000000000000000, 1.000000000000000000, 0.0000000000000000000 ) ) ;
#28 = DIRECTION ( 'NONE',  ( 4.275831445896959482E-31, 1.000000000000000000, 1.224646799147353454E-16 ) ) ;
#29 = ORIENTED_EDGE ( 'NONE', *, *, #270, .T. ) ;
#30 = AXIS2_PLACEMENT_3D ( 'NONE', #18, #252, #85 ) ;
#31 = PLANE ( 'NONE',  #58 ) ;
#32 = CARTESIAN_POINT ( 'NONE',  ( 9.433334530136822643E-14, -3.308768346860495140E-15, 27.01814391842764707 ) ) ;
#33 = AXIS2_PLACEMENT_3D ( 'NONE', #11, #7, #171 ) ;
#34 = EDGE_LOOP ( 'NONE', ( #263 ) ) ;
#35 = CARTESIAN_POINT ( 'NONE',  ( 0.0000000000000000000, 0.0000000000000000000, 0.0000000000000000000 ) ) ;
#36 = CYLINDRICAL_SURFACE ( 'NONE', #6, 1.499999999999999334 ) ;
#37 = LOCAL_TIME ( 8, 11, 29.00000000000000000, #139 ) ;
#38 = FACE_OUTER_BOUND ( 'NONE', #78, .T. ) ;
#39 = APPROVAL ( #25, 'UNSPECIFIED' ) ;
#40 = DIRECTION ( 'NONE',  ( -3.491481338843133355E-15, 1.224646799147353454E-16, -1.000000000000000000 ) ) ;
#41 = CARTESIAN_POINT ( 'NONE',  ( 3.612429800294234159E-14, 1.174999999999997158, 10.34641016151378423 ) ) ;
#42 = CARTESIAN_POINT ( 'NONE',  ( 3.491481338843133355E-14, -1.224646799147353454E-15, 10.00000000000000000 ) ) ;
#43 = VERTEX_POINT ( 'NONE', #102 ) ;
#44 = ADVANCED_FACE ( 'NONE', ( #217, #155 ), #5, .F. ) ;
#45 = PERSON_AND_ORGANIZATION ( #269, #221 ) ;
#46 = PERSON_AND_ORGANIZATION_ROLE ( 'creator' ) ;
#47 = CIRCLE ( 'NONE', #219, 1.375000000000000000 ) ;
#48 = CC_DESIGN_PERSON_AND_ORGANIZATION_ASSIGNMENT ( #91, #166, ( #128 ) ) ;
#49 = AXIS2_PLACEMENT_3D ( 'NONE', #147, #83, #173 ) ;
#50 = EDGE_LOOP ( 'NONE', ( #151 ) ) ;
#51 = EDGE_CURVE ( 'NONE', #198, #198, #300, .T. ) ;
#52 = ORIENTED_EDGE ( 'NONE', *, *, #270, .F. ) ;
#53 = APPLICATION_PROTOCOL_DEFINITION ( 'international standard', 'config_control_design', 1994, #9 ) ;
#54 = PRODUCT ( '200689', '200689', '', ( #21 ) ) ;
#55 = EDGE_LOOP ( 'NONE', ( #241 ) ) ;
#56 = CARTESIAN_POINT ( 'NONE',  ( 8.728703347107833388E-14, 1.174999999999997158, 25.00000000000000000 ) ) ;
#57 = EDGE_LOOP ( 'NONE', ( #29 ) ) ;
#58 = AXIS2_PLACEMENT_3D ( 'NONE', #197, #273, #28 ) ;
#59 = ORIENTED_EDGE ( 'NONE', *, *, #75, .T. ) ;
#60 = CARTESIAN_POINT ( 'NONE',  ( 3.491481338843133355E-14, 1.031084850580025463E-32, 10.00000000000000000 ) ) ;
#61 = DIRECTION ( 'NONE',  ( 3.491481338843133355E-15, -1.224646799147353454E-16, 1.000000000000000000 ) ) ;
#62 = CARTESIAN_POINT ( 'NONE',  ( 2.119329172677781757E-13, -7.433606070824434221E-15, 60.69999999999999574 ) ) ;
#63 = DIRECTION ( 'NONE',  ( 4.275831445896959482E-31, 1.000000000000000000, 1.224646799147353207E-16 ) ) ;
#64 =( GEOMETRIC_REPRESENTATION_CONTEXT ( 3 ) GLOBAL_UNCERTAINTY_ASSIGNED_CONTEXT ( ( #283 ) ) GLOBAL_UNIT_ASSIGNED_CONTEXT ( ( #81, #134, #285 ) ) REPRESENTATION_CONTEXT ( 'NONE', 'WORKASPACE' ) );
#65 = VERTEX_POINT ( 'NONE', #222 ) ;
#66 = CARTESIAN_POINT ( 'NONE',  ( 9.433334530136822643E-14, -3.308768346860495140E-15, 27.01814391842764707 ) ) ;
#67 = VERTEX_POINT ( 'NONE', #265 ) ;
#68 = ADVANCED_FACE ( 'NONE', ( #266, #169 ), #237, .T. ) ;
#69 = PERSON_AND_ORGANIZATION ( #269, #221 ) ;
#70 = APPROVAL_DATE_TIME ( #92, #148 ) ;
#71 = APPLICATION_PROTOCOL_DEFINITION ( 'international standard', 'config_control_design', 1994, #177 ) ;
#72 = PERSON_AND_ORGANIZATION_ROLE ( 'creator' ) ;
#73 = AXIS2_PLACEMENT_3D ( 'NONE', #274, #176, #175 ) ;
#74 = AXIS2_PLACEMENT_3D ( 'NONE', #122, #218, #109 ) ;
#75 = EDGE_CURVE ( 'NONE', #90, #90, #113, .T. ) ;
#76 = DIRECTION ( 'NONE',  ( -3.491481338843133355E-15, 1.224646799147353454E-16, -1.000000000000000000 ) ) ;
#77 = CIRCLE ( 'NONE', #49, 1.200000000000002842 ) ;
#78 = EDGE_LOOP ( 'NONE', ( #98 ) ) ;
#79 = CC_DESIGN_APPROVAL ( #297, ( #243 ) ) ;
#80 = DIRECTION ( 'NONE',  ( -3.491481338843133355E-15, 1.224646799147353454E-16, -1.000000000000000000 ) ) ;
#81 =( LENGTH_UNIT ( ) NAMED_UNIT ( * ) SI_UNIT ( .MILLI., .METRE. ) );
#82 = ORIENTED_EDGE ( 'NONE', *, *, #119, .F. ) ;
#83 = DIRECTION ( 'NONE',  ( -3.491481338843133355E-15, 1.224646799147353454E-16, -1.000000000000000000 ) ) ;
#84 = CARTESIAN_POINT ( 'NONE',  ( 8.849961221477469775E-14, -3.104148534859897544E-15, 25.34729635533384595 ) ) ;
#85 = DIRECTION ( 'NONE',  ( 0.0000000000000000000, 1.000000000000000000, 0.0000000000000000000 ) ) ;
#86 = CARTESIAN_POINT ( 'NONE',  ( 0.0000000000000000000, 0.0000000000000000000, 0.0000000000000000000 ) ) ;
#87 = FACE_BOUND ( 'NONE', #199, .T. ) ;
#88 = CIRCLE ( 'NONE', #152, 1.500000000000002887 ) ;
#89 = FACE_OUTER_BOUND ( 'NONE', #129, .T. ) ;
#90 = VERTEX_POINT ( 'NONE', #127 ) ;
#91 = PERSON_AND_ORGANIZATION ( #269, #221 ) ;
#92 = DATE_AND_TIME ( #301, #146 ) ;
#93 = COORDINATED_UNIVERSAL_TIME_OFFSET ( 1, 0, .AHEAD. ) ;
#94 = CALENDAR_DATE ( 2021, 2, 12 ) ;
#95 = AXIS2_PLACEMENT_3D ( 'NONE', #60, #207, #157 ) ;
#96 = EDGE_CURVE ( 'NONE', #185, #185, #141, .T. ) ;
#97 = ORIENTED_EDGE ( 'NONE', *, *, #286, .F. ) ;
#98 = ORIENTED_EDGE ( 'NONE', *, *, #96, .T. ) ;
#99 = VERTEX_POINT ( 'NONE', #41 ) ;
#100 = APPROVAL_PERSON_ORGANIZATION ( #258, #39, #214 ) ;
#101 = FACE_OUTER_BOUND ( 'NONE', #284, .T. ) ;
#102 = CARTESIAN_POINT ( 'NONE',  ( 1.135641495829896858E-30, 1.125000000000001332, 3.252606517456513302E-16 ) ) ;
#103 = ORIENTED_EDGE ( 'NONE', *, *, #236, .F. ) ;
#104 = ORIENTED_EDGE ( 'NONE', *, *, #119, .T. ) ;
#105 = EDGE_CURVE ( 'NONE', #67, #67, #138, .T. ) ;
#106 = DIRECTION ( 'NONE',  ( 4.275831445896960358E-31, 1.000000000000000000, 1.224646799147353454E-16 ) ) ;
#107 = FACE_OUTER_BOUND ( 'NONE', #288, .T. ) ;
#108 = DIRECTION ( 'NONE',  ( 0.0000000000000000000, 1.000000000000000000, 0.0000000000000000000 ) ) ;
#109 = DIRECTION ( 'NONE',  ( 0.0000000000000000000, 1.000000000000000000, 0.0000000000000000000 ) ) ;
#110 = AXIS2_PLACEMENT_3D ( 'NONE', #182, #206, #255 ) ;
#111 = APPROVAL_DATE_TIME ( #280, #39 ) ;
#112 = DATE_AND_TIME ( #186, #143 ) ;
#113 = CIRCLE ( 'NONE', #233, 1.375000000000000000 ) ;
#114 = CALENDAR_DATE ( 2021, 2, 12 ) ;
#115 = ADVANCED_BREP_SHAPE_REPRESENTATION ( '200689', ( #213, #4, #235 ), #64 ) ;
#116 = PRODUCT_RELATED_PRODUCT_CATEGORY ( 'detail', '', ( #54 ) ) ;
#117 = COORDINATED_UNIVERSAL_TIME_OFFSET ( 1, 0, .AHEAD. ) ;
#118 = LOCAL_TIME ( 8, 11, 29.00000000000000000, #117 ) ;
#119 = EDGE_CURVE ( 'NONE', #99, #99, #282, .T. ) ;
#120 = ORIENTED_EDGE ( 'NONE', *, *, #105, .T. ) ;
#121 = EDGE_LOOP ( 'NONE', ( #59 ) ) ;
#122 = CARTESIAN_POINT ( 'NONE',  ( 3.612429800294234159E-14, -1.267069808696350687E-15, 10.34641016151378423 ) ) ;
#123 = CC_DESIGN_PERSON_AND_ORGANIZATION_ASSIGNMENT ( #281, #46, ( #243 ) ) ;
#124 = ORIENTED_EDGE ( 'NONE', *, *, #105, .F. ) ;
#125 = AXIS2_PLACEMENT_3D ( 'NONE', #298, #253, #20 ) ;
#126 = PRODUCT_DEFINITION_SHAPE ( 'NONE', 'NONE',  #243 ) ;
#127 = CARTESIAN_POINT ( 'NONE',  ( 3.491481338843133355E-14, 1.374999999999998668, 10.00000000000000000 ) ) ;
#128 = SECURITY_CLASSIFICATION ( '', '', #167 ) ;
#129 = EDGE_LOOP ( 'NONE', ( #82 ) ) ;
#130 = EDGE_CURVE ( 'NONE', #227, #227, #2, .T. ) ;
#131 = AXIS2_PLACEMENT_3D ( 'NONE', #239, #80, #27 ) ;
#132 = DIRECTION ( 'NONE',  ( 3.491481338843133355E-15, -1.224646799147353454E-16, 1.000000000000000000 ) ) ;
#133 = FACE_BOUND ( 'NONE', #8, .T. ) ;
#134 =( NAMED_UNIT ( * ) PLANE_ANGLE_UNIT ( ) SI_UNIT ( $, .RADIAN. ) );
#135 = DIRECTION ( 'NONE',  ( 0.0000000000000000000, -1.000000000000000000, 0.0000000000000000000 ) ) ;
#136 = FACE_OUTER_BOUND ( 'NONE', #12, .T. ) ;
#137 = DIRECTION ( 'NONE',  ( 1.000000000000000000, 0.0000000000000000000, 0.0000000000000000000 ) ) ;
#138 = CIRCLE ( 'NONE', #193, 1.205384493975581339 ) ;
#139 = COORDINATED_UNIVERSAL_TIME_OFFSET ( 1, 0, .AHEAD. ) ;
#140 = CONICAL_SURFACE ( 'NONE', #131, 1.200000000000002842, 0.7853981633974453924 ) ;
#141 = CIRCLE ( 'NONE', #14, 1.374999999999998668 ) ;
#142 = DATE_TIME_ROLE ( 'creation_date' ) ;
#143 = LOCAL_TIME ( 8, 11, 29.00000000000000000, #93 ) ;
#144 = DESIGN_CONTEXT ( 'detailed design', #177, 'design' ) ;
#145 = DIRECTION ( 'NONE',  ( 4.275831445896959482E-31, 1.000000000000000000, 1.224646799147353454E-16 ) ) ;
#146 = LOCAL_TIME ( 8, 11, 29.00000000000000000, #232 ) ;
#147 = CARTESIAN_POINT ( 'NONE',  ( 2.129803616694311221E-13, -7.470345474798856659E-15, 61.00000000000000000 ) ) ;
#148 = APPROVAL ( #23, 'UNSPECIFIED' ) ;
#149 = DIRECTION ( 'NONE',  ( 0.0000000000000000000, 1.000000000000000000, 0.0000000000000000000 ) ) ;
#150 = ORIENTED_EDGE ( 'NONE', *, *, #286, .T. ) ;
#151 = ORIENTED_EDGE ( 'NONE', *, *, #130, .T. ) ;
#152 = AXIS2_PLACEMENT_3D ( 'NONE', #62, #158, #149 ) ;
#153 = CC_DESIGN_SECURITY_CLASSIFICATION ( #128, ( #10 ) ) ;
#154 = ADVANCED_FACE ( 'NONE', ( #292 ), #294, .T. ) ;
#155 = FACE_OUTER_BOUND ( 'NONE', #15, .T. ) ;
#156 = DIRECTION ( 'NONE',  ( -3.491481338843133355E-15, 1.224646799147353454E-16, -1.000000000000000000 ) ) ;
#157 = DIRECTION ( 'NONE',  ( -4.275831445896959482E-31, -1.000000000000000000, -1.224646799147353454E-16 ) ) ;
#158 = DIRECTION ( 'NONE',  ( -3.491481338843133355E-15, 1.224646799147353454E-16, -1.000000000000000000 ) ) ;
#159 = DIRECTION ( 'NONE',  ( 4.202028969572154774E-31, 1.000000000000000000, 1.182766006347824095E-16 ) ) ;
#160 = CYLINDRICAL_SURFACE ( 'NONE', #110, 1.174999999999999378 ) ;
#161 = CC_DESIGN_DATE_AND_TIME_ASSIGNMENT ( #164, #142, ( #243 ) ) ;
#162 = DIRECTION ( 'NONE',  ( -3.491481338843133355E-15, 1.224646799147353454E-16, -1.000000000000000000 ) ) ;
#163 = CARTESIAN_POINT ( 'NONE',  ( 9.433334530136822643E-14, 1.499999999999992673, 27.01814391842764707 ) ) ;
#164 = DATE_AND_TIME ( #94, #202 ) ;
#165 = ADVANCED_FACE ( 'NONE', ( #133, #226 ), #229, .T. ) ;
#166 = PERSON_AND_ORGANIZATION_ROLE ( 'classification_officer' ) ;
#167 = SECURITY_CLASSIFICATION_LEVEL ( 'unclassified' ) ;
#168 = AXIS2_PLACEMENT_3D ( 'NONE', #66, #61, #135 ) ;
#169 = FACE_OUTER_BOUND ( 'NONE', #121, .T. ) ;
#170 = ORIENTED_EDGE ( 'NONE', *, *, #51, .F. ) ;
#171 = DIRECTION ( 'NONE',  ( -4.202028969572154774E-31, -1.000000000000000000, -1.182766006347824095E-16 ) ) ;
#172 = DIRECTION ( 'NONE',  ( 0.0000000000000000000, 1.000000000000000000, 0.0000000000000000000 ) ) ;
#173 = DIRECTION ( 'NONE',  ( 0.0000000000000000000, 1.000000000000000000, 0.0000000000000000000 ) ) ;
#174 = CARTESIAN_POINT ( 'NONE',  ( 8.728703347107833388E-14, -3.035766082959412415E-15, 25.00000000000000000 ) ) ;
#175 = DIRECTION ( 'NONE',  ( 0.0000000000000000000, 1.000000000000000000, 0.0000000000000000000 ) ) ;
#176 = DIRECTION ( 'NONE',  ( -3.491481338843133355E-15, 1.224646799147353454E-16, -1.000000000000000000 ) ) ;
#177 = APPLICATION_CONTEXT ( 'configuration controlled 3d designs of mechanical parts and assemblies' ) ;
#178 = FACE_OUTER_BOUND ( 'NONE', #289, .T. ) ;
#179 = CARTESIAN_POINT ( 'NONE',  ( 3.273052290832441240E-31, -1.148032202497173388E-32, 9.374394342078694705E-17 ) ) ;
#180 = AXIS2_PLACEMENT_3D ( 'NONE', #179, #132, #19 ) ;
#181 = CC_DESIGN_PERSON_AND_ORGANIZATION_ASSIGNMENT ( #69, #24, ( #54 ) ) ;
#182 = CARTESIAN_POINT ( 'NONE',  ( 0.0000000000000000000, 0.0000000000000000000, 0.0000000000000000000 ) ) ;
#183 = FACE_OUTER_BOUND ( 'NONE', #50, .T. ) ;
#184 = APPROVAL_PERSON_ORGANIZATION ( #279, #148, #210 ) ;
#185 = VERTEX_POINT ( 'NONE', #275 ) ;
#186 = CALENDAR_DATE ( 2021, 2, 12 ) ;
#187 = ADVANCED_FACE ( 'NONE', ( #277 ), #204, .F. ) ;
#188 = CLOSED_SHELL ( 'NONE', ( #215, #302, #68, #154 ) ) ;
#189 = CALENDAR_DATE ( 2021, 2, 12 ) ;
#190 = CONICAL_SURFACE ( 'NONE', #33, 1.374999999999998668, 0.7853981633974431720 ) ;
#191 = SHAPE_DEFINITION_REPRESENTATION ( #126, #115 ) ;
#192 = CC_DESIGN_DATE_AND_TIME_ASSIGNMENT ( #112, #231, ( #128 ) ) ;
#193 = AXIS2_PLACEMENT_3D ( 'NONE', #84, #156, #108 ) ;
#194 = ADVANCED_FACE ( 'NONE', ( #136, #250 ), #36, .T. ) ;
#195 = EDGE_LOOP ( 'NONE', ( #267 ) ) ;
#196 = AXIS2_PLACEMENT_3D ( 'NONE', #174, #244, #145 ) ;
#197 = CARTESIAN_POINT ( 'NONE',  ( 2.129803616694311221E-13, 8.998558695971062171E-33, 61.00000000000000000 ) ) ;
#198 = VERTEX_POINT ( 'NONE', #163 ) ;
#199 = EDGE_LOOP ( 'NONE', ( #104 ) ) ;
#200 = EDGE_LOOP ( 'NONE', ( #97 ) ) ;
#201 = DIRECTION ( 'NONE',  ( 3.491481338843133355E-15, -1.224646799147353454E-16, 1.000000000000000000 ) ) ;
#202 = LOCAL_TIME ( 8, 11, 29.00000000000000000, #256 ) ;
#203 = DIRECTION ( 'NONE',  ( -3.491481338843133355E-15, 1.224646799147353454E-16, -1.000000000000000000 ) ) ;
#204 = PLANE ( 'NONE',  #95 ) ;
#205 = CC_DESIGN_PERSON_AND_ORGANIZATION_ASSIGNMENT ( #209, #1, ( #10 ) ) ;
#206 = DIRECTION ( 'NONE',  ( -3.491481338843133355E-15, 1.224646799147353454E-16, -1.000000000000000000 ) ) ;
#207 = DIRECTION ( 'NONE',  ( 3.491481338843133355E-15, -1.224646799147353454E-16, 1.000000000000000000 ) ) ;
#208 = CARTESIAN_POINT ( 'NONE',  ( 2.129803616694311221E-13, 1.199999999999995515, 61.00000000000000000 ) ) ;
#209 = PERSON_AND_ORGANIZATION ( #269, #221 ) ;
#210 = APPROVAL_ROLE ( '' ) ;
#211 = CLOSED_SHELL ( 'NONE', ( #187, #290, #247, #44, #165, #194, #22, #262 ) ) ;
#212 = APPROVAL_ROLE ( '' ) ;
#213 = MANIFOLD_SOLID_BREP ( 'Corps-Déplacer/Copier1[1]', #211 ) ;
#214 = APPROVAL_ROLE ( '' ) ;
#215 = ADVANCED_FACE ( 'NONE', ( #107 ), #246, .F. ) ;
#216 = ORIENTED_EDGE ( 'NONE', *, *, #75, .F. ) ;
#217 = FACE_OUTER_BOUND ( 'NONE', #55, .T. ) ;
#218 = DIRECTION ( 'NONE',  ( -3.491481338843133355E-15, 1.224646799147353454E-16, -1.000000000000000000 ) ) ;
#219 = AXIS2_PLACEMENT_3D ( 'NONE', #228, #203, #296 ) ;
#220 = ORIENTED_EDGE ( 'NONE', *, *, #13, .F. ) ;
#221 = ORGANIZATION ( 'UNSPECIFIED', 'UNSPECIFIED', '' ) ;
#222 = CARTESIAN_POINT ( 'NONE',  ( 3.491481338843133355E-14, 1.374999999999998668, 10.00000000000000000 ) ) ;
#223 = EDGE_LOOP ( 'NONE', ( #103 ) ) ;
#224 = EDGE_LOOP ( 'NONE', ( #245 ) ) ;
#225 = DIRECTION ( 'NONE',  ( -3.491481338843133355E-15, 1.224646799147353454E-16, -1.000000000000000000 ) ) ;
#226 = FACE_OUTER_BOUND ( 'NONE', #195, .T. ) ;
#227 = VERTEX_POINT ( 'NONE', #56 ) ;
#228 = CARTESIAN_POINT ( 'NONE',  ( 3.491481338843133355E-14, -1.224646799147353454E-15, 10.00000000000000000 ) ) ;
#229 = CONICAL_SURFACE ( 'NONE', #168, 1.499999999999996003, 0.1745329251994262310 ) ;
#230 = PERSON_AND_ORGANIZATION ( #269, #221 ) ;
#231 = DATE_TIME_ROLE ( 'classification_date' ) ;
#232 = COORDINATED_UNIVERSAL_TIME_OFFSET ( 1, 0, .AHEAD. ) ;
#233 = AXIS2_PLACEMENT_3D ( 'NONE', #42, #40, #254 ) ;
#234 = DIRECTION ( 'NONE',  ( 0.0000000000000000000, 0.0000000000000000000, 1.000000000000000000 ) ) ;
#235 = AXIS2_PLACEMENT_3D ( 'NONE', #295, #234, #137 ) ;
#236 = EDGE_CURVE ( 'NONE', #65, #65, #47, .T. ) ;
#237 = CYLINDRICAL_SURFACE ( 'NONE', #249, 1.374999999999999334 ) ;
#238 = CC_DESIGN_APPROVAL ( #148, ( #128 ) ) ;
#239 = CARTESIAN_POINT ( 'NONE',  ( 2.129803616694311221E-13, -7.470345474798856659E-15, 61.00000000000000000 ) ) ;
#240 = FACE_OUTER_BOUND ( 'NONE', #223, .T. ) ;
#241 = ORIENTED_EDGE ( 'NONE', *, *, #130, .F. ) ;
#242 = AXIS2_PLACEMENT_3D ( 'NONE', #16, #201, #271 ) ;
#243 = PRODUCT_DEFINITION ( 'UNKNOWN', '', #10, #144 ) ;
#244 = DIRECTION ( 'NONE',  ( -3.491481338843133355E-15, 1.224646799147353454E-16, -1.000000000000000000 ) ) ;
#245 = ORIENTED_EDGE ( 'NONE', *, *, #96, .F. ) ;
#246 = PLANE ( 'NONE',  #180 ) ;
#247 = ADVANCED_FACE ( 'NONE', ( #89, #183 ), #160, .T. ) ;
#248 = AXIS2_PLACEMENT_3D ( 'NONE', #32, #76, #172 ) ;
#249 = AXIS2_PLACEMENT_3D ( 'NONE', #35, #291, #63 ) ;
#250 = FACE_OUTER_BOUND ( 'NONE', #57, .T. ) ;
#251 = FACE_BOUND ( 'NONE', #200, .T. ) ;
#252 = DIRECTION ( 'NONE',  ( -3.491481338843133355E-15, 1.224646799147353454E-16, -1.000000000000000000 ) ) ;
#253 = DIRECTION ( 'NONE',  ( -3.491481338843133355E-15, 1.224646799147353454E-16, -1.000000000000000000 ) ) ;
#254 = DIRECTION ( 'NONE',  ( 0.0000000000000000000, 1.000000000000000000, 0.0000000000000000000 ) ) ;
#255 = DIRECTION ( 'NONE',  ( 4.275831445896959482E-31, 1.000000000000000000, 1.224646799147353454E-16 ) ) ;
#256 = COORDINATED_UNIVERSAL_TIME_OFFSET ( 1, 0, .AHEAD. ) ;
#257 = DATE_AND_TIME ( #189, #118 ) ;
#258 = PERSON_AND_ORGANIZATION ( #269, #221 ) ;
#259 = CC_DESIGN_PERSON_AND_ORGANIZATION_ASSIGNMENT ( #45, #72, ( #10 ) ) ;
#260 = CIRCLE ( 'NONE', #125, 1.125000000000001332 ) ;
#261 = APPROVAL_PERSON_ORGANIZATION ( #230, #297, #212 ) ;
#262 = ADVANCED_FACE ( 'NONE', ( #178 ), #31, .F. ) ;
#263 = ORIENTED_EDGE ( 'NONE', *, *, #13, .T. ) ;
#264 = ORIENTED_EDGE ( 'NONE', *, *, #236, .T. ) ;
#265 = CARTESIAN_POINT ( 'NONE',  ( 8.849961221477469775E-14, 1.205384493975578231, 25.34729635533384595 ) ) ;
#266 = FACE_OUTER_BOUND ( 'NONE', #224, .T. ) ;
#267 = ORIENTED_EDGE ( 'NONE', *, *, #51, .T. ) ;
#268 = EDGE_LOOP ( 'NONE', ( #264 ) ) ;
#269 = PERSON ( 'UNSPECIFIED', 'UNSPECIFIED', 'UNSPECIFIED', ('UNSPECIFIED'), ('UNSPECIFIED'), ('UNSPECIFIED') ) ;
#270 = EDGE_CURVE ( 'NONE', #287, #287, #88, .T. ) ;
#271 = DIRECTION ( 'NONE',  ( -4.275831445896959482E-31, -1.000000000000000000, -1.224646799147353454E-16 ) ) ;
#272 = CARTESIAN_POINT ( 'NONE',  ( 8.728703347107829444E-16, -3.061616997868382402E-17, 0.2499999999999998890 ) ) ;
#273 = DIRECTION ( 'NONE',  ( -3.491481338843133355E-15, 1.224646799147353454E-16, -1.000000000000000000 ) ) ;
#274 = CARTESIAN_POINT ( 'NONE',  ( 3.612429800294234159E-14, -1.267069808696350687E-15, 10.34641016151378423 ) ) ;
#275 = CARTESIAN_POINT ( 'NONE',  ( 8.728703347107835360E-16, 1.374999999999998668, 0.2500000000000000555 ) ) ;
#276 = CC_DESIGN_APPROVAL ( #39, ( #10 ) ) ;
#277 = FACE_OUTER_BOUND ( 'NONE', #268, .T. ) ;
#278 = VERTEX_POINT ( 'NONE', #208 ) ;
#279 = PERSON_AND_ORGANIZATION ( #269, #221 ) ;
#280 = DATE_AND_TIME ( #114, #37 ) ;
#281 = PERSON_AND_ORGANIZATION ( #269, #221 ) ;
#282 = CIRCLE ( 'NONE', #73, 1.174999999999998490 ) ;
#283 = UNCERTAINTY_MEASURE_WITH_UNIT (LENGTH_MEASURE( 1.000000000000000082E-05 ), #81, 'distance_accuracy_value', 'NONE');
#284 = EDGE_LOOP ( 'NONE', ( #52 ) ) ;
#285 =( NAMED_UNIT ( * ) SI_UNIT ( $, .STERADIAN. ) SOLID_ANGLE_UNIT ( ) );
#286 = EDGE_CURVE ( 'NONE', #43, #43, #260, .T. ) ;
#287 = VERTEX_POINT ( 'NONE', #293 ) ;
#288 = EDGE_LOOP ( 'NONE', ( #150 ) ) ;
#289 = EDGE_LOOP ( 'NONE', ( #220 ) ) ;
#290 = ADVANCED_FACE ( 'NONE', ( #240, #87 ), #17, .T. ) ;
#291 = DIRECTION ( 'NONE',  ( -3.491481338843133355E-15, 1.224646799147353454E-16, -1.000000000000000000 ) ) ;
#292 = FACE_OUTER_BOUND ( 'NONE', #3, .T. ) ;
#293 = CARTESIAN_POINT ( 'NONE',  ( 2.119329172677781757E-13, 1.499999999999995559, 60.69999999999999574 ) ) ;
#294 = PLANE ( 'NONE',  #242 ) ;
#295 = CARTESIAN_POINT ( 'NONE',  ( 0.0000000000000000000, 0.0000000000000000000, 0.0000000000000000000 ) ) ;
#296 = DIRECTION ( 'NONE',  ( 0.0000000000000000000, 1.000000000000000000, 0.0000000000000000000 ) ) ;
#297 = APPROVAL ( #299, 'UNSPECIFIED' ) ;
#298 = CARTESIAN_POINT ( 'NONE',  ( 6.546104581664882481E-31, -2.296064404994346775E-32, 1.874878868415738941E-16 ) ) ;
#299 = APPROVAL_STATUS ( 'not_yet_approved' ) ;
#300 = CIRCLE ( 'NONE', #248, 1.499999999999996003 ) ;
#301 = CALENDAR_DATE ( 2021, 2, 12 ) ;
#302 = ADVANCED_FACE ( 'NONE', ( #251, #38 ), #190, .T. ) ;
#303 = APPROVAL_DATE_TIME ( #257, #297 ) ;
ENDSEC;
END-ISO-10303-21;
