ISO-10303-21;
HEADER;
FILE_DESCRIPTION (( 'STEP AP203' ),
    '1' );
FILE_NAME ('200688.step',
    '2021-12-01T14:03:29',
    ( '' ),
    ( '' ),
    'SwSTEP 2.0',
    'SolidWorks 2019',
    '' );
FILE_SCHEMA (( 'CONFIG_CONTROL_DESIGN' ));
ENDSEC;

DATA;
#1 = ORIENTED_EDGE ( 'NONE', *, *, #244, .F. ) ;
#2 = AXIS2_PLACEMENT_3D ( 'NONE', #259, #55, #50 ) ;
#3 = APPROVAL_ROLE ( '' ) ;
#4 = CALENDAR_DATE ( 2021, 1, 12 ) ;
#5 = PERSON_AND_ORGANIZATION_ROLE ( 'creator' ) ;
#6 = EDGE_CURVE ( 'NONE', #303, #303, #270, .T. ) ;
#7 = CIRCLE ( 'NONE', #36, 0.8749999999999998890 ) ;
#8 = EDGE_LOOP ( 'NONE', ( #254 ) ) ;
#9 = EDGE_LOOP ( 'NONE', ( #199 ) ) ;
#10 = EDGE_CURVE ( 'NONE', #90, #90, #149, .T. ) ;
#11 = FACE_BOUND ( 'NONE', #197, .T. ) ;
#12 = DIRECTION ( 'NONE',  ( 3.491481338843133355E-15, -1.224646799147353207E-16, 1.000000000000000000 ) ) ;
#13 = ORIENTED_EDGE ( 'NONE', *, *, #221, .T. ) ;
#14 = DIRECTION ( 'NONE',  ( 0.0000000000000000000, 1.000000000000000000, 0.0000000000000000000 ) ) ;
#15 = EDGE_LOOP ( 'NONE', ( #184 ) ) ;
#16 = CARTESIAN_POINT ( 'NONE',  ( 2.793185071074506684E-14, 7.686268886142003819E-33, 8.000000000000000000 ) ) ;
#17 = APPLICATION_CONTEXT ( 'configuration controlled 3d designs of mechanical parts and assemblies' ) ;
#18 = FACE_OUTER_BOUND ( 'NONE', #8, .T. ) ;
#19 = ADVANCED_FACE ( 'NONE', ( #189, #62 ), #119, .T. ) ;
#20 = AXIS2_PLACEMENT_3D ( 'NONE', #16, #12, #107 ) ;
#21 = CARTESIAN_POINT ( 'NONE',  ( 2.793185071074506684E-14, -9.797174393178825657E-16, 8.000000000000000000 ) ) ;
#22 = MECHANICAL_CONTEXT ( 'NONE', #102, 'mechanical' ) ;
#23 = CARTESIAN_POINT ( 'NONE',  ( 7.583332832162122659E-14, -2.659875101281078396E-15, 21.71952846431303286 ) ) ;
#24 = ADVANCED_FACE ( 'NONE', ( #118 ), #220, .F. ) ;
#25 = AXIS2_PLACEMENT_3D ( 'NONE', #228, #127, #251 ) ;
#26 = APPROVAL_DATE_TIME ( #94, #166 ) ;
#27 = LOCAL_TIME ( 15, 3, 29.00000000000000000, #97 ) ;
#28 = PERSON_AND_ORGANIZATION_ROLE ( 'classification_officer' ) ;
#29 = EDGE_LOOP ( 'NONE', ( #101 ) ) ;
#30 =( GEOMETRIC_REPRESENTATION_CONTEXT ( 3 ) GLOBAL_UNCERTAINTY_ASSIGNED_CONTEXT ( ( #246 ) ) GLOBAL_UNIT_ASSIGNED_CONTEXT ( ( #60, #185, #137 ) ) REPRESENTATION_CONTEXT ( 'NONE', 'WORKASPACE' ) );
#31 = DIRECTION ( 'NONE',  ( -3.491481338843133355E-15, 1.224646799147353207E-16, -1.000000000000000000 ) ) ;
#32 = DIRECTION ( 'NONE',  ( -4.275831445896958607E-31, -1.000000000000000000, -1.224646799147353207E-16 ) ) ;
#33 = PRODUCT_DEFINITION_FORMATION_WITH_SPECIFIED_SOURCE ( 'ANY', '', #141, .NOT_KNOWN. ) ;
#34 = CARTESIAN_POINT ( 'NONE',  ( 8.728703347107829444E-16, -3.061616997868381785E-17, 0.2499999999999998890 ) ) ;
#35 = CARTESIAN_POINT ( 'NONE',  ( 6.284666409917640040E-14, 0.8749999999999977796, 18.00000000000000000 ) ) ;
#36 = AXIS2_PLACEMENT_3D ( 'NONE', #269, #108, #205 ) ;
#37 = FACE_OUTER_BOUND ( 'NONE', #195, .T. ) ;
#38 = ORIENTED_EDGE ( 'NONE', *, *, #43, .T. ) ;
#39 = CC_DESIGN_PERSON_AND_ORGANIZATION_ASSIGNMENT ( #289, #193, ( #258 ) ) ;
#40 = LOCAL_TIME ( 15, 3, 29.00000000000000000, #213 ) ;
#41 = DIRECTION ( 'NONE',  ( 4.275831445896959482E-31, 1.000000000000000000, 1.224646799147353207E-16 ) ) ;
#42 = ORGANIZATION ( 'UNSPECIFIED', 'UNSPECIFIED', '' ) ;
#43 = EDGE_CURVE ( 'NONE', #177, #177, #175, .T. ) ;
#44 = SECURITY_CLASSIFICATION_LEVEL ( 'unclassified' ) ;
#45 = PERSON_AND_ORGANIZATION ( #104, #42 ) ;
#46 = AXIS2_PLACEMENT_3D ( 'NONE', #89, #236, #247 ) ;
#47 = EDGE_CURVE ( 'NONE', #240, #240, #130, .T. ) ;
#48 = DATE_TIME_ROLE ( 'classification_date' ) ;
#49 = CARTESIAN_POINT ( 'NONE',  ( -2.829149974676514397E-31, 9.923322293749977986E-33, -8.103007577906529256E-17 ) ) ;
#50 = DIRECTION ( 'NONE',  ( 0.0000000000000000000, 1.000000000000000000, 0.0000000000000000000 ) ) ;
#51 = AXIS2_PLACEMENT_3D ( 'NONE', #299, #52, #74 ) ;
#52 = DIRECTION ( 'NONE',  ( -3.491481338843133355E-15, 1.224646799147353207E-16, -1.000000000000000000 ) ) ;
#53 = FACE_OUTER_BOUND ( 'NONE', #138, .T. ) ;
#54 = PERSON_AND_ORGANIZATION_ROLE ( 'design_owner' ) ;
#55 = DIRECTION ( 'NONE',  ( -3.491481338843133355E-15, 1.224646799147353207E-16, -1.000000000000000000 ) ) ;
#56 = VERTEX_POINT ( 'NONE', #281 ) ;
#57 = CONICAL_SURFACE ( 'NONE', #200, 0.8749999999999987788, 0.5235987755982934866 ) ;
#58 = DIRECTION ( 'NONE',  ( 0.0000000000000000000, 1.000000000000000000, 0.0000000000000000000 ) ) ;
#59 = CARTESIAN_POINT ( 'NONE',  ( 2.883896417162832445E-14, 0.8749999999999978906, 8.259807621135337286 ) ) ;
#60 =( LENGTH_UNIT ( ) NAMED_UNIT ( * ) SI_UNIT ( .MILLI., .METRE. ) );
#61 = AXIS2_PLACEMENT_3D ( 'NONE', #222, #121, #162 ) ;
#62 = FACE_OUTER_BOUND ( 'NONE', #188, .T. ) ;
#63 = CARTESIAN_POINT ( 'NONE',  ( 7.583332832162122659E-14, -2.659875101281078396E-15, 21.71952846431303286 ) ) ;
#64 = CC_DESIGN_DATE_AND_TIME_ASSIGNMENT ( #142, #48, ( #191 ) ) ;
#65 = APPROVAL_STATUS ( 'not_yet_approved' ) ;
#66 = CALENDAR_DATE ( 2021, 1, 12 ) ;
#67 = PERSON_AND_ORGANIZATION ( #104, #42 ) ;
#68 = AXIS2_PLACEMENT_3D ( 'NONE', #275, #202, #279 ) ;
#69 = APPROVAL_ROLE ( '' ) ;
#70 = CC_DESIGN_SECURITY_CLASSIFICATION ( #191, ( #33 ) ) ;
#71 = ORIENTED_EDGE ( 'NONE', *, *, #263, .T. ) ;
#72 = AXIS2_PLACEMENT_3D ( 'NONE', #294, #173, #32 ) ;
#73 = ORIENTED_EDGE ( 'NONE', *, *, #47, .F. ) ;
#74 = DIRECTION ( 'NONE',  ( 4.275831445896958607E-31, 1.000000000000000000, 1.224646799147353454E-16 ) ) ;
#75 = EDGE_CURVE ( 'NONE', #154, #154, #113, .T. ) ;
#76 = DIRECTION ( 'NONE',  ( -3.491481338843133355E-15, 1.224646799147353207E-16, -1.000000000000000000 ) ) ;
#77 = CIRCLE ( 'NONE', #239, 1.499999999999996669 ) ;
#78 = CARTESIAN_POINT ( 'NONE',  ( 6.405924284287275164E-14, -2.246895775456749140E-15, 18.34729635533384595 ) ) ;
#79 = CLOSED_SHELL ( 'NONE', ( #215, #194, #242, #136, #19, #207, #122, #131 ) ) ;
#80 = ADVANCED_BREP_SHAPE_REPRESENTATION ( '200688', ( #211, #109, #139 ), #30 ) ;
#81 = DIRECTION ( 'NONE',  ( 3.491481338843133355E-15, -1.224646799147353207E-16, 1.000000000000000000 ) ) ;
#82 = APPROVAL_PERSON_ORGANIZATION ( #165, #201, #69 ) ;
#83 = CARTESIAN_POINT ( 'NONE',  ( 0.0000000000000000000, 0.0000000000000000000, 0.0000000000000000000 ) ) ;
#84 = PLANE ( 'NONE',  #72 ) ;
#85 = DIRECTION ( 'NONE',  ( -3.491481338843133355E-15, 1.224646799147353207E-16, -1.000000000000000000 ) ) ;
#86 = EDGE_LOOP ( 'NONE', ( #233 ) ) ;
#87 = AXIS2_PLACEMENT_3D ( 'NONE', #179, #88, #134 ) ;
#88 = DIRECTION ( 'NONE',  ( -3.491481338843133355E-15, 1.224646799147353207E-16, -1.000000000000000000 ) ) ;
#89 = CARTESIAN_POINT ( 'NONE',  ( 1.735266225405037467E-13, -6.086494591762345225E-15, 49.70000000000000284 ) ) ;
#90 = VERTEX_POINT ( 'NONE', #183 ) ;
#91 = CIRCLE ( 'NONE', #87, 0.8806624327025943666 ) ;
#92 = ORIENTED_EDGE ( 'NONE', *, *, #263, .F. ) ;
#93 = DIRECTION ( 'NONE',  ( 0.0000000000000000000, 1.000000000000000000, 0.0000000000000000000 ) ) ;
#94 = DATE_AND_TIME ( #4, #27 ) ;
#95 = EDGE_CURVE ( 'NONE', #300, #300, #243, .T. ) ;
#96 = CC_DESIGN_PERSON_AND_ORGANIZATION_ASSIGNMENT ( #67, #5, ( #33 ) ) ;
#97 = COORDINATED_UNIVERSAL_TIME_OFFSET ( 1, 0, .AHEAD. ) ;
#98 = LOCAL_TIME ( 15, 3, 29.00000000000000000, #143 ) ;
#99 = CLOSED_SHELL ( 'NONE', ( #24, #114, #276, #198 ) ) ;
#100 = PERSON_AND_ORGANIZATION ( #104, #42 ) ;
#101 = ORIENTED_EDGE ( 'NONE', *, *, #95, .F. ) ;
#102 = APPLICATION_CONTEXT ( 'configuration controlled 3d designs of mechanical parts and assemblies' ) ;
#103 = CIRCLE ( 'NONE', #214, 0.9053844939755809618 ) ;
#104 = PERSON ( 'UNSPECIFIED', 'UNSPECIFIED', 'UNSPECIFIED', ('UNSPECIFIED'), ('UNSPECIFIED'), ('UNSPECIFIED') ) ;
#105 = EDGE_CURVE ( 'NONE', #283, #283, #7, .T. ) ;
#106 = CARTESIAN_POINT ( 'NONE',  ( 1.745740669421566678E-13, -6.123233995736766085E-15, 50.00000000000000000 ) ) ;
#107 = DIRECTION ( 'NONE',  ( -4.275831445896958607E-31, -1.000000000000000000, -1.224646799147353207E-16 ) ) ;
#108 = DIRECTION ( 'NONE',  ( -3.491481338843133355E-15, 1.224646799147353207E-16, -1.000000000000000000 ) ) ;
#109 = MANIFOLD_SOLID_BREP ( 'Corps-Déplacer/Copier1[2]', #99 ) ;
#110 = CYLINDRICAL_SURFACE ( 'NONE', #51, 1.499999999999999112 ) ;
#111 = CARTESIAN_POINT ( 'NONE',  ( 1.745740669421566678E-13, 1.199999999999995515, 50.00000000000000000 ) ) ;
#112 = EDGE_LOOP ( 'NONE', ( #209 ) ) ;
#113 = CIRCLE ( 'NONE', #230, 1.024999999999999911 ) ;
#114 = ADVANCED_FACE ( 'NONE', ( #249, #128 ), #172, .T. ) ;
#115 = ORIENTED_EDGE ( 'NONE', *, *, #75, .F. ) ;
#116 = LOCAL_TIME ( 15, 3, 29.00000000000000000, #288 ) ;
#117 = CARTESIAN_POINT ( 'NONE',  ( 0.0000000000000000000, 0.0000000000000000000, 0.0000000000000000000 ) ) ;
#118 = FACE_OUTER_BOUND ( 'NONE', #268, .T. ) ;
#119 = CONICAL_SURFACE ( 'NONE', #182, 1.499999999999996669, 0.1745329251994260089 ) ;
#120 = DESIGN_CONTEXT ( 'detailed design', #17, 'design' ) ;
#121 = DIRECTION ( 'NONE',  ( -3.491481338843133355E-15, 1.224646799147353207E-16, -1.000000000000000000 ) ) ;
#122 = ADVANCED_FACE ( 'NONE', ( #204, #129 ), #151, .T. ) ;
#123 = LOCAL_TIME ( 15, 3, 29.00000000000000000, #146 ) ;
#124 = ORIENTED_EDGE ( 'NONE', *, *, #47, .T. ) ;
#125 = EDGE_LOOP ( 'NONE', ( #286 ) ) ;
#126 = ORIENTED_EDGE ( 'NONE', *, *, #75, .T. ) ;
#127 = DIRECTION ( 'NONE',  ( -3.491481338843133355E-15, 1.224646799147353207E-16, -1.000000000000000000 ) ) ;
#128 = FACE_OUTER_BOUND ( 'NONE', #282, .T. ) ;
#129 = FACE_BOUND ( 'NONE', #278, .T. ) ;
#130 = CIRCLE ( 'NONE', #2, 0.8749999999999987788 ) ;
#131 = ADVANCED_FACE ( 'NONE', ( #178 ), #272, .F. ) ;
#132 = FACE_OUTER_BOUND ( 'NONE', #15, .T. ) ;
#133 = CARTESIAN_POINT ( 'NONE',  ( 2.793185071074506684E-14, 1.024999999999998801, 8.000000000000000000 ) ) ;
#134 = DIRECTION ( 'NONE',  ( 4.275831445896958607E-31, 1.000000000000000000, 1.224646799147353207E-16 ) ) ;
#135 = ORIENTED_EDGE ( 'NONE', *, *, #6, .T. ) ;
#136 = ADVANCED_FACE ( 'NONE', ( #156, #255 ), #158, .F. ) ;
#137 =( NAMED_UNIT ( * ) SI_UNIT ( $, .STERADIAN. ) SOLID_ANGLE_UNIT ( ) );
#138 = EDGE_LOOP ( 'NONE', ( #115 ) ) ;
#139 = AXIS2_PLACEMENT_3D ( 'NONE', #83, #238, #257 ) ;
#140 = PERSON_AND_ORGANIZATION ( #104, #42 ) ;
#141 = PRODUCT ( '200688', '200688', '', ( #22 ) ) ;
#142 = DATE_AND_TIME ( #168, #98 ) ;
#143 = COORDINATED_UNIVERSAL_TIME_OFFSET ( 1, 0, .AHEAD. ) ;
#144 = DIRECTION ( 'NONE',  ( 3.491481338843133355E-15, -1.224646799147353207E-16, 1.000000000000000000 ) ) ;
#145 = APPROVAL_DATE_TIME ( #262, #201 ) ;
#146 = COORDINATED_UNIVERSAL_TIME_OFFSET ( 1, 0, .AHEAD. ) ;
#147 = EDGE_LOOP ( 'NONE', ( #38 ) ) ;
#148 = CC_DESIGN_DATE_AND_TIME_ASSIGNMENT ( #261, #217, ( #258 ) ) ;
#149 = CIRCLE ( 'NONE', #301, 1.024999999999999911 ) ;
#150 = DIRECTION ( 'NONE',  ( -3.491481338843133355E-15, 1.224646799147353207E-16, -1.000000000000000000 ) ) ;
#151 = CONICAL_SURFACE ( 'NONE', #223, 1.200000000000001732, 0.7853981633974453924 ) ;
#152 = FACE_OUTER_BOUND ( 'NONE', #164, .T. ) ;
#153 = DIRECTION ( 'NONE',  ( 0.0000000000000000000, 1.000000000000000000, 0.0000000000000000000 ) ) ;
#154 = VERTEX_POINT ( 'NONE', #133 ) ;
#155 = EDGE_LOOP ( 'NONE', ( #13 ) ) ;
#156 = FACE_OUTER_BOUND ( 'NONE', #9, .T. ) ;
#157 = CYLINDRICAL_SURFACE ( 'NONE', #260, 1.024999999999999467 ) ;
#158 = TOROIDAL_SURFACE ( 'NONE', #68, 2.875000000000000000, 2.000000000000000000 ) ;
#159 = CC_DESIGN_APPROVAL ( #201, ( #191 ) ) ;
#160 = CARTESIAN_POINT ( 'NONE',  ( -1.892735826383161356E-31, 0.8806624327025943666, -5.421010862427523403E-17 ) ) ;
#161 = DIRECTION ( 'NONE',  ( 4.275831445896958607E-31, 1.000000000000000000, 1.224646799147353207E-16 ) ) ;
#162 = DIRECTION ( 'NONE',  ( 3.757912086609245121E-31, 1.000000000000000000, 1.057758217059029964E-16 ) ) ;
#163 = CALENDAR_DATE ( 2021, 1, 12 ) ;
#164 = EDGE_LOOP ( 'NONE', ( #290 ) ) ;
#165 = PERSON_AND_ORGANIZATION ( #104, #42 ) ;
#166 = APPROVAL ( #265, 'UNSPECIFIED' ) ;
#167 = PERSON_AND_ORGANIZATION ( #104, #42 ) ;
#168 = CALENDAR_DATE ( 2021, 1, 12 ) ;
#169 = CC_DESIGN_PERSON_AND_ORGANIZATION_ASSIGNMENT ( #140, #54, ( #141 ) ) ;
#170 = CC_DESIGN_APPROVAL ( #203, ( #258 ) ) ;
#171 = PERSON_AND_ORGANIZATION ( #104, #42 ) ;
#172 = CONICAL_SURFACE ( 'NONE', #250, 1.024999999999998801, 0.5235987755982925984 ) ;
#173 = DIRECTION ( 'NONE',  ( 3.491481338843133355E-15, -1.224646799147353207E-16, 1.000000000000000000 ) ) ;
#174 = PLANE ( 'NONE',  #20 ) ;
#175 = CIRCLE ( 'NONE', #46, 1.500000000000001554 ) ;
#176 = DIRECTION ( 'NONE',  ( -3.491481338843133355E-15, 1.224646799147353207E-16, -1.000000000000000000 ) ) ;
#177 = VERTEX_POINT ( 'NONE', #210 ) ;
#178 = FACE_OUTER_BOUND ( 'NONE', #29, .T. ) ;
#179 = CARTESIAN_POINT ( 'NONE',  ( -5.658299949353028795E-31, 1.984664458749995597E-32, -1.620601515581305851E-16 ) ) ;
#180 = FACE_OUTER_BOUND ( 'NONE', #147, .T. ) ;
#181 = VERTEX_POINT ( 'NONE', #160 ) ;
#182 = AXIS2_PLACEMENT_3D ( 'NONE', #23, #144, #186 ) ;
#183 = CARTESIAN_POINT ( 'NONE',  ( 2.793185071074506684E-14, 1.024999999999998801, 8.000000000000000000 ) ) ;
#184 = ORIENTED_EDGE ( 'NONE', *, *, #10, .F. ) ;
#185 =( NAMED_UNIT ( * ) PLANE_ANGLE_UNIT ( ) SI_UNIT ( $, .RADIAN. ) );
#186 = DIRECTION ( 'NONE',  ( 0.0000000000000000000, -1.000000000000000000, 0.0000000000000000000 ) ) ;
#187 = APPROVAL_DATE_TIME ( #192, #203 ) ;
#188 = EDGE_LOOP ( 'NONE', ( #71 ) ) ;
#189 = FACE_BOUND ( 'NONE', #86, .T. ) ;
#190 = SHAPE_DEFINITION_REPRESENTATION ( #237, #80 ) ;
#191 = SECURITY_CLASSIFICATION ( '', '', #44 ) ;
#192 = DATE_AND_TIME ( #66, #123 ) ;
#193 = PERSON_AND_ORGANIZATION_ROLE ( 'creator' ) ;
#194 = ADVANCED_FACE ( 'NONE', ( #132, #11 ), #57, .T. ) ;
#195 = EDGE_LOOP ( 'NONE', ( #73 ) ) ;
#196 = APPROVAL_PERSON_ORGANIZATION ( #171, #166, #216 ) ;
#197 = EDGE_LOOP ( 'NONE', ( #124 ) ) ;
#198 = ADVANCED_FACE ( 'NONE', ( #53 ), #174, .T. ) ;
#199 = ORIENTED_EDGE ( 'NONE', *, *, #105, .F. ) ;
#200 = AXIS2_PLACEMENT_3D ( 'NONE', #293, #76, #234 ) ;
#201 = APPROVAL ( #241, 'UNSPECIFIED' ) ;
#202 = DIRECTION ( 'NONE',  ( -3.491481338843133355E-15, 1.224646799147353207E-16, -1.000000000000000000 ) ) ;
#203 = APPROVAL ( #65, 'UNSPECIFIED' ) ;
#204 = FACE_OUTER_BOUND ( 'NONE', #125, .T. ) ;
#205 = DIRECTION ( 'NONE',  ( 0.0000000000000000000, 1.000000000000000000, 0.0000000000000000000 ) ) ;
#206 = DIRECTION ( 'NONE',  ( -3.491481338843133355E-15, 1.224646799147353207E-16, -1.000000000000000000 ) ) ;
#207 = ADVANCED_FACE ( 'NONE', ( #271, #180 ), #110, .T. ) ;
#208 = DIRECTION ( 'NONE',  ( -3.491481338843133355E-15, 1.224646799147353207E-16, -1.000000000000000000 ) ) ;
#209 = ORIENTED_EDGE ( 'NONE', *, *, #105, .T. ) ;
#210 = CARTESIAN_POINT ( 'NONE',  ( 1.735266225405037467E-13, 1.499999999999995559, 49.70000000000000284 ) ) ;
#211 = MANIFOLD_SOLID_BREP ( 'Corps-Déplacer/Copier1[1]', #79 ) ;
#212 = DIRECTION ( 'NONE',  ( 0.0000000000000000000, 1.000000000000000000, 0.0000000000000000000 ) ) ;
#213 = COORDINATED_UNIVERSAL_TIME_OFFSET ( 1, 0, .AHEAD. ) ;
#214 = AXIS2_PLACEMENT_3D ( 'NONE', #78, #176, #153 ) ;
#215 = ADVANCED_FACE ( 'NONE', ( #152 ), #84, .F. ) ;
#216 = APPROVAL_ROLE ( '' ) ;
#217 = DATE_TIME_ROLE ( 'creation_date' ) ;
#218 = APPROVAL_PERSON_ORGANIZATION ( #45, #203, #3 ) ;
#219 = EDGE_LOOP ( 'NONE', ( #92 ) ) ;
#220 = PLANE ( 'NONE',  #267 ) ;
#221 = EDGE_CURVE ( 'NONE', #297, #297, #103, .T. ) ;
#222 = CARTESIAN_POINT ( 'NONE',  ( 8.728703347107829444E-16, -3.061616997868381785E-17, 0.2499999999999998890 ) ) ;
#223 = AXIS2_PLACEMENT_3D ( 'NONE', #106, #206, #14 ) ;
#224 = EDGE_LOOP ( 'NONE', ( #126 ) ) ;
#225 = DIRECTION ( 'NONE',  ( 0.0000000000000000000, 1.000000000000000000, 0.0000000000000000000 ) ) ;
#226 = PRODUCT_RELATED_PRODUCT_CATEGORY ( 'detail', '', ( #141 ) ) ;
#227 = DIRECTION ( 'NONE',  ( 3.491481338843133355E-15, -1.224646799147353207E-16, 1.000000000000000000 ) ) ;
#228 = CARTESIAN_POINT ( 'NONE',  ( 1.745740669421566678E-13, 8.998558695971067645E-33, 50.00000000000000000 ) ) ;
#229 = DIRECTION ( 'NONE',  ( -3.757912086609245121E-31, -1.000000000000000000, -1.057758217059029964E-16 ) ) ;
#230 = AXIS2_PLACEMENT_3D ( 'NONE', #296, #150, #225 ) ;
#231 = DIRECTION ( 'NONE',  ( -4.275831445896958607E-31, -1.000000000000000000, -1.224646799147353207E-16 ) ) ;
#232 = CARTESIAN_POINT ( 'NONE',  ( 6.405924284287275164E-14, 0.9053844939755787413, 18.34729635533384595 ) ) ;
#233 = ORIENTED_EDGE ( 'NONE', *, *, #221, .F. ) ;
#234 = DIRECTION ( 'NONE',  ( 0.0000000000000000000, 1.000000000000000000, 0.0000000000000000000 ) ) ;
#235 = FACE_OUTER_BOUND ( 'NONE', #224, .T. ) ;
#236 = DIRECTION ( 'NONE',  ( -3.491481338843133355E-15, 1.224646799147353207E-16, -1.000000000000000000 ) ) ;
#237 = PRODUCT_DEFINITION_SHAPE ( 'NONE', 'NONE',  #258 ) ;
#238 = DIRECTION ( 'NONE',  ( 0.0000000000000000000, 0.0000000000000000000, 1.000000000000000000 ) ) ;
#239 = AXIS2_PLACEMENT_3D ( 'NONE', #63, #256, #212 ) ;
#240 = VERTEX_POINT ( 'NONE', #59 ) ;
#241 = APPROVAL_STATUS ( 'not_yet_approved' ) ;
#242 = ADVANCED_FACE ( 'NONE', ( #37, #273 ), #280, .T. ) ;
#243 = CIRCLE ( 'NONE', #291, 1.200000000000001732 ) ;
#244 = EDGE_CURVE ( 'NONE', #181, #181, #91, .T. ) ;
#245 = CC_DESIGN_PERSON_AND_ORGANIZATION_ASSIGNMENT ( #100, #28, ( #191 ) ) ;
#246 = UNCERTAINTY_MEASURE_WITH_UNIT (LENGTH_MEASURE( 1.000000000000000082E-05 ), #60, 'distance_accuracy_value', 'NONE');
#247 = DIRECTION ( 'NONE',  ( 0.0000000000000000000, 1.000000000000000000, 0.0000000000000000000 ) ) ;
#248 = CC_DESIGN_APPROVAL ( #166, ( #33 ) ) ;
#249 = FACE_BOUND ( 'NONE', #298, .T. ) ;
#250 = AXIS2_PLACEMENT_3D ( 'NONE', #34, #81, #229 ) ;
#251 = DIRECTION ( 'NONE',  ( 4.275831445896958607E-31, 1.000000000000000000, 1.224646799147353207E-16 ) ) ;
#252 = CARTESIAN_POINT ( 'NONE',  ( 1.745740669421566678E-13, -6.123233995736766085E-15, 50.00000000000000000 ) ) ;
#253 = CARTESIAN_POINT ( 'NONE',  ( 8.728703347107833388E-16, 1.024999999999998801, 0.2500000000000000000 ) ) ;
#254 = ORIENTED_EDGE ( 'NONE', *, *, #6, .F. ) ;
#255 = FACE_OUTER_BOUND ( 'NONE', #155, .T. ) ;
#256 = DIRECTION ( 'NONE',  ( -3.491481338843133355E-15, 1.224646799147353207E-16, -1.000000000000000000 ) ) ;
#257 = DIRECTION ( 'NONE',  ( 1.000000000000000000, 0.0000000000000000000, 0.0000000000000000000 ) ) ;
#258 = PRODUCT_DEFINITION ( 'UNKNOWN', '', #33, #120 ) ;
#259 = CARTESIAN_POINT ( 'NONE',  ( 2.883896417162832445E-14, -1.011534696479630343E-15, 8.259807621135337286 ) ) ;
#260 = AXIS2_PLACEMENT_3D ( 'NONE', #277, #208, #161 ) ;
#261 = DATE_AND_TIME ( #163, #116 ) ;
#262 = DATE_AND_TIME ( #266, #40 ) ;
#263 = EDGE_CURVE ( 'NONE', #56, #56, #77, .T. ) ;
#264 = AXIS2_PLACEMENT_3D ( 'NONE', #117, #85, #41 ) ;
#265 = APPROVAL_STATUS ( 'not_yet_approved' ) ;
#266 = CALENDAR_DATE ( 2021, 1, 12 ) ;
#267 = AXIS2_PLACEMENT_3D ( 'NONE', #49, #227, #231 ) ;
#268 = EDGE_LOOP ( 'NONE', ( #295 ) ) ;
#269 = CARTESIAN_POINT ( 'NONE',  ( 6.284666409917640040E-14, -2.204364238465235428E-15, 18.00000000000000000 ) ) ;
#270 = CIRCLE ( 'NONE', #61, 1.024999999999998801 ) ;
#271 = FACE_OUTER_BOUND ( 'NONE', #219, .T. ) ;
#272 = PLANE ( 'NONE',  #25 ) ;
#273 = FACE_OUTER_BOUND ( 'NONE', #112, .T. ) ;
#274 = ORIENTED_EDGE ( 'NONE', *, *, #95, .T. ) ;
#275 = CARTESIAN_POINT ( 'NONE',  ( 6.284666409917640040E-14, -2.168404344971008868E-15, 18.00000000000000000 ) ) ;
#276 = ADVANCED_FACE ( 'NONE', ( #18, #235 ), #157, .T. ) ;
#277 = CARTESIAN_POINT ( 'NONE',  ( 0.0000000000000000000, 0.0000000000000000000, 0.0000000000000000000 ) ) ;
#278 = EDGE_LOOP ( 'NONE', ( #274 ) ) ;
#279 = DIRECTION ( 'NONE',  ( 4.275831445896958607E-31, 1.000000000000000000, 1.224646799147353207E-16 ) ) ;
#280 = CYLINDRICAL_SURFACE ( 'NONE', #264, 0.8749999999999993339 ) ;
#281 = CARTESIAN_POINT ( 'NONE',  ( 7.583332832162122659E-14, 1.499999999999994005, 21.71952846431303286 ) ) ;
#282 = EDGE_LOOP ( 'NONE', ( #135 ) ) ;
#283 = VERTEX_POINT ( 'NONE', #35 ) ;
#284 = PERSON_AND_ORGANIZATION_ROLE ( 'design_supplier' ) ;
#285 = APPLICATION_PROTOCOL_DEFINITION ( 'international standard', 'config_control_design', 1994, #17 ) ;
#286 = ORIENTED_EDGE ( 'NONE', *, *, #43, .F. ) ;
#287 = DIRECTION ( 'NONE',  ( -3.491481338843133355E-15, 1.224646799147353207E-16, -1.000000000000000000 ) ) ;
#288 = COORDINATED_UNIVERSAL_TIME_OFFSET ( 1, 0, .AHEAD. ) ;
#289 = PERSON_AND_ORGANIZATION ( #104, #42 ) ;
#290 = ORIENTED_EDGE ( 'NONE', *, *, #10, .T. ) ;
#291 = AXIS2_PLACEMENT_3D ( 'NONE', #252, #31, #58 ) ;
#292 = CC_DESIGN_PERSON_AND_ORGANIZATION_ASSIGNMENT ( #167, #284, ( #33 ) ) ;
#293 = CARTESIAN_POINT ( 'NONE',  ( 2.883896417162832445E-14, -1.011534696479630343E-15, 8.259807621135337286 ) ) ;
#294 = CARTESIAN_POINT ( 'NONE',  ( 2.793185071074506684E-14, 7.686268886142003819E-33, 8.000000000000000000 ) ) ;
#295 = ORIENTED_EDGE ( 'NONE', *, *, #244, .T. ) ;
#296 = CARTESIAN_POINT ( 'NONE',  ( 2.793185071074506684E-14, -9.797174393178825657E-16, 8.000000000000000000 ) ) ;
#297 = VERTEX_POINT ( 'NONE', #232 ) ;
#298 = EDGE_LOOP ( 'NONE', ( #1 ) ) ;
#299 = CARTESIAN_POINT ( 'NONE',  ( 0.0000000000000000000, 0.0000000000000000000, 0.0000000000000000000 ) ) ;
#300 = VERTEX_POINT ( 'NONE', #111 ) ;
#301 = AXIS2_PLACEMENT_3D ( 'NONE', #21, #287, #93 ) ;
#302 = APPLICATION_PROTOCOL_DEFINITION ( 'international standard', 'config_control_design', 1994, #102 ) ;
#303 = VERTEX_POINT ( 'NONE', #253 ) ;
ENDSEC;
END-ISO-10303-21;
