ISO-10303-21;
HEADER;
FILE_DESCRIPTION (( 'STEP AP203' ),
    '1' );
FILE_NAME ('200687.step',
    '2021-12-01T14:03:29',
    ( '' ),
    ( '' ),
    'SwSTEP 2.0',
    'SolidWorks 2019',
    '' );
FILE_SCHEMA (( 'CONFIG_CONTROL_DESIGN' ));
ENDSEC;

DATA;
#1 = EDGE_LOOP ( 'NONE', ( #175 ) ) ;
#2 = AXIS2_PLACEMENT_3D ( 'NONE', #245, #38, #95 ) ;
#3 = ADVANCED_FACE ( 'NONE', ( #254 ), #43, .F. ) ;
#4 = ORIENTED_EDGE ( 'NONE', *, *, #246, .F. ) ;
#5 = ORIENTED_EDGE ( 'NONE', *, *, #105, .T. ) ;
#6 = CARTESIAN_POINT ( 'NONE',  ( 6.405924284287275164E-14, -2.246895775456749140E-15, 18.34729635533384595 ) ) ;
#7 = EDGE_CURVE ( 'NONE', #15, #15, #295, .T. ) ;
#8 = PRODUCT ( '200687', '200687', '', ( #247 ) ) ;
#9 = PERSON_AND_ORGANIZATION_ROLE ( 'design_supplier' ) ;
#10 = DATE_AND_TIME ( #235, #224 ) ;
#11 = VERTEX_POINT ( 'NONE', #240 ) ;
#12 = DIRECTION ( 'NONE',  ( -3.491481338843133355E-15, 1.224646799147353207E-16, -1.000000000000000000 ) ) ;
#13 = CC_DESIGN_PERSON_AND_ORGANIZATION_ASSIGNMENT ( #225, #252, ( #156 ) ) ;
#14 = CARTESIAN_POINT ( 'NONE',  ( 8.728703347107831416E-16, -3.061616997868382402E-17, 0.2499999999999999445 ) ) ;
#15 = VERTEX_POINT ( 'NONE', #103 ) ;
#16 = DIRECTION ( 'NONE',  ( -3.491481338843133355E-15, 1.224646799147353207E-16, -1.000000000000000000 ) ) ;
#17 = FACE_OUTER_BOUND ( 'NONE', #152, .T. ) ;
#18 = AXIS2_PLACEMENT_3D ( 'NONE', #83, #56, #124 ) ;
#19 = PERSON_AND_ORGANIZATION_ROLE ( 'design_owner' ) ;
#20 = EDGE_CURVE ( 'NONE', #193, #193, #144, .T. ) ;
#21 = AXIS2_PLACEMENT_3D ( 'NONE', #26, #285, #153 ) ;
#22 = APPROVAL_ROLE ( '' ) ;
#23 = CARTESIAN_POINT ( 'NONE',  ( 2.793185071074506684E-14, -9.797174393178825657E-16, 8.000000000000000000 ) ) ;
#24 =( LENGTH_UNIT ( ) NAMED_UNIT ( * ) SI_UNIT ( .MILLI., .METRE. ) );
#25 = CARTESIAN_POINT ( 'NONE',  ( 1.745740669421566678E-13, 8.998558695971067645E-33, 50.00000000000000000 ) ) ;
#26 = CARTESIAN_POINT ( 'NONE',  ( 1.745740669421566678E-13, -6.123233995736766085E-15, 50.00000000000000000 ) ) ;
#27 = ORIENTED_EDGE ( 'NONE', *, *, #62, .F. ) ;
#28 = CC_DESIGN_PERSON_AND_ORGANIZATION_ASSIGNMENT ( #129, #19, ( #8 ) ) ;
#29 = EDGE_LOOP ( 'NONE', ( #45 ) ) ;
#30 = AXIS2_PLACEMENT_3D ( 'NONE', #227, #283, #115 ) ;
#31 = DATE_TIME_ROLE ( 'creation_date' ) ;
#32 = DIRECTION ( 'NONE',  ( -3.491481338843133355E-15, 1.224646799147353207E-16, -1.000000000000000000 ) ) ;
#33 = DIRECTION ( 'NONE',  ( 3.491481338843133355E-15, -1.224646799147353207E-16, 1.000000000000000000 ) ) ;
#34 = PERSON_AND_ORGANIZATION ( #257, #42 ) ;
#35 = VERTEX_POINT ( 'NONE', #122 ) ;
#36 = DIRECTION ( 'NONE',  ( 3.491481338843133355E-15, -1.224646799147353207E-16, 1.000000000000000000 ) ) ;
#37 = DIRECTION ( 'NONE',  ( 3.491481338843133355E-15, -1.224646799147353207E-16, 1.000000000000000000 ) ) ;
#38 = DIRECTION ( 'NONE',  ( -3.491481338843133355E-15, 1.224646799147353207E-16, -1.000000000000000000 ) ) ;
#39 = LOCAL_TIME ( 15, 3, 29.00000000000000000, #211 ) ;
#40 = CARTESIAN_POINT ( 'NONE',  ( 1.735266225405037467E-13, 1.499999999999995559, 49.70000000000000284 ) ) ;
#41 = AXIS2_PLACEMENT_3D ( 'NONE', #266, #218, #163 ) ;
#42 = ORGANIZATION ( 'UNSPECIFIED', 'UNSPECIFIED', '' ) ;
#43 = PLANE ( 'NONE',  #116 ) ;
#44 = EDGE_LOOP ( 'NONE', ( #5 ) ) ;
#45 = ORIENTED_EDGE ( 'NONE', *, *, #135, .T. ) ;
#46 = EDGE_LOOP ( 'NONE', ( #134 ) ) ;
#47 = COORDINATED_UNIVERSAL_TIME_OFFSET ( 1, 0, .AHEAD. ) ;
#48 = APPROVAL ( #207, 'UNSPECIFIED' ) ;
#49 = MANIFOLD_SOLID_BREP ( 'Corps-Déplacer/Copier1[2]', #233 ) ;
#50 = APPROVAL_ROLE ( '' ) ;
#51 = PLANE ( 'NONE',  #172 ) ;
#52 = FACE_OUTER_BOUND ( 'NONE', #155, .T. ) ;
#53 = CONICAL_SURFACE ( 'NONE', #282, 1.499999999999996669, 0.1745329251994262587 ) ;
#54 = APPROVAL_ROLE ( '' ) ;
#55 = FACE_OUTER_BOUND ( 'NONE', #154, .T. ) ;
#56 = DIRECTION ( 'NONE',  ( -3.491481338843133355E-15, 1.224646799147353207E-16, -1.000000000000000000 ) ) ;
#57 = AXIS2_PLACEMENT_3D ( 'NONE', #112, #87, #137 ) ;
#58 = APPROVAL_PERSON_ORGANIZATION ( #117, #237, #54 ) ;
#59 = CARTESIAN_POINT ( 'NONE',  ( 6.284666409917640040E-14, -2.204364238465235428E-15, 18.00000000000000000 ) ) ;
#60 = CARTESIAN_POINT ( 'NONE',  ( 6.284666409917640040E-14, -2.168404344971008868E-15, 18.00000000000000000 ) ) ;
#61 = ADVANCED_BREP_SHAPE_REPRESENTATION ( '200687', ( #253, #49, #85 ), #178 ) ;
#62 = EDGE_CURVE ( 'NONE', #11, #11, #161, .T. ) ;
#63 = APPLICATION_PROTOCOL_DEFINITION ( 'international standard', 'config_control_design', 1994, #229 ) ;
#64 = VERTEX_POINT ( 'NONE', #82 ) ;
#65 = CARTESIAN_POINT ( 'NONE',  ( 7.484326958959538328E-14, 1.499999999999994005, 21.43596437333213345 ) ) ;
#66 = AXIS2_PLACEMENT_3D ( 'NONE', #183, #185, #74 ) ;
#67 = DIRECTION ( 'NONE',  ( -3.491481338843133355E-15, 1.224646799147353207E-16, -1.000000000000000000 ) ) ;
#68 = EDGE_LOOP ( 'NONE', ( #131 ) ) ;
#69 = ORIENTED_EDGE ( 'NONE', *, *, #133, .F. ) ;
#70 = ORIENTED_EDGE ( 'NONE', *, *, #127, .F. ) ;
#71 = CALENDAR_DATE ( 2021, 1, 12 ) ;
#72 = DIRECTION ( 'NONE',  ( 0.0000000000000000000, 1.000000000000000000, 0.0000000000000000000 ) ) ;
#73 = CYLINDRICAL_SURFACE ( 'NONE', #202, 1.499999999999999112 ) ;
#74 = DIRECTION ( 'NONE',  ( 0.0000000000000000000, 1.000000000000000000, 0.0000000000000000000 ) ) ;
#75 = CIRCLE ( 'NONE', #97, 0.9250000000000000444 ) ;
#76 = EDGE_CURVE ( 'NONE', #35, #35, #271, .T. ) ;
#77 = CARTESIAN_POINT ( 'NONE',  ( 2.793185071074506684E-14, 1.074999999999998845, 8.000000000000000000 ) ) ;
#78 = CARTESIAN_POINT ( 'NONE',  ( 2.793185071074506684E-14, 8.061208831807468221E-33, 8.000000000000000000 ) ) ;
#79 = CIRCLE ( 'NONE', #101, 1.074999999999999956 ) ;
#80 = DIRECTION ( 'NONE',  ( -3.583125477929744859E-31, -1.000000000000000000, -1.008560160451633084E-16 ) ) ;
#81 = FACE_BOUND ( 'NONE', #46, .T. ) ;
#82 = CARTESIAN_POINT ( 'NONE',  ( 2.883896417162832445E-14, 0.9249999999999978240, 8.259807621135337286 ) ) ;
#83 = CARTESIAN_POINT ( 'NONE',  ( 1.735266225405037467E-13, -6.086494591762345225E-15, 49.70000000000000284 ) ) ;
#84 = EDGE_LOOP ( 'NONE', ( #177 ) ) ;
#85 = AXIS2_PLACEMENT_3D ( 'NONE', #165, #167, #277 ) ;
#86 = ORIENTED_EDGE ( 'NONE', *, *, #105, .F. ) ;
#87 = DIRECTION ( 'NONE',  ( -3.491481338843133355E-15, 1.224646799147353207E-16, -1.000000000000000000 ) ) ;
#88 = AXIS2_PLACEMENT_3D ( 'NONE', #239, #33, #191 ) ;
#89 = EDGE_LOOP ( 'NONE', ( #69 ) ) ;
#90 = EDGE_LOOP ( 'NONE', ( #258 ) ) ;
#91 = AXIS2_PLACEMENT_3D ( 'NONE', #6, #12, #72 ) ;
#92 = CC_DESIGN_APPROVAL ( #48, ( #241 ) ) ;
#93 = APPROVAL_STATUS ( 'not_yet_approved' ) ;
#94 = FACE_BOUND ( 'NONE', #29, .T. ) ;
#95 = DIRECTION ( 'NONE',  ( 0.0000000000000000000, 1.000000000000000000, 0.0000000000000000000 ) ) ;
#96 = CARTESIAN_POINT ( 'NONE',  ( 0.0000000000000000000, 0.0000000000000000000, 0.0000000000000000000 ) ) ;
#97 = AXIS2_PLACEMENT_3D ( 'NONE', #59, #16, #141 ) ;
#98 = ADVANCED_FACE ( 'NONE', ( #209, #94 ), #190, .T. ) ;
#99 = FACE_OUTER_BOUND ( 'NONE', #89, .T. ) ;
#100 = FACE_OUTER_BOUND ( 'NONE', #136, .T. ) ;
#101 = AXIS2_PLACEMENT_3D ( 'NONE', #23, #67, #171 ) ;
#102 = APPROVAL_PERSON_ORGANIZATION ( #168, #108, #22 ) ;
#103 = CARTESIAN_POINT ( 'NONE',  ( 2.793185071074506684E-14, 1.074999999999998845, 8.000000000000000000 ) ) ;
#104 = AXIS2_PLACEMENT_3D ( 'NONE', #60, #146, #242 ) ;
#105 = EDGE_CURVE ( 'NONE', #188, #188, #79, .T. ) ;
#106 = CALENDAR_DATE ( 2021, 1, 12 ) ;
#107 = AXIS2_PLACEMENT_3D ( 'NONE', #173, #216, #219 ) ;
#108 = APPROVAL ( #223, 'UNSPECIFIED' ) ;
#109 = COORDINATED_UNIVERSAL_TIME_OFFSET ( 1, 0, .AHEAD. ) ;
#110 = DIRECTION ( 'NONE',  ( -3.491481338843133355E-15, 1.224646799147353207E-16, -1.000000000000000000 ) ) ;
#111 = EDGE_LOOP ( 'NONE', ( #204 ) ) ;
#112 = CARTESIAN_POINT ( 'NONE',  ( 7.484326958959538328E-14, -2.625148515643789720E-15, 21.43596437333213345 ) ) ;
#113 = EDGE_LOOP ( 'NONE', ( #231 ) ) ;
#114 = EDGE_LOOP ( 'NONE', ( #4 ) ) ;
#115 = DIRECTION ( 'NONE',  ( 0.0000000000000000000, 1.000000000000000000, 0.0000000000000000000 ) ) ;
#116 = AXIS2_PLACEMENT_3D ( 'NONE', #25, #110, #281 ) ;
#117 = PERSON_AND_ORGANIZATION ( #257, #42 ) ;
#118 = LOCAL_TIME ( 15, 3, 29.00000000000000000, #109 ) ;
#119 = PERSON_AND_ORGANIZATION ( #257, #42 ) ;
#120 = DIRECTION ( 'NONE',  ( -3.491481338843133355E-15, 1.224646799147353207E-16, -1.000000000000000000 ) ) ;
#121 = FACE_OUTER_BOUND ( 'NONE', #228, .T. ) ;
#122 = CARTESIAN_POINT ( 'NONE',  ( -1.892735826383161356E-31, 0.9306624327025946330, -5.421010862427522170E-17 ) ) ;
#123 = CARTESIAN_POINT ( 'NONE',  ( 2.793185071074506684E-14, 8.061208831807468221E-33, 8.000000000000000000 ) ) ;
#124 = DIRECTION ( 'NONE',  ( 0.0000000000000000000, 1.000000000000000000, 0.0000000000000000000 ) ) ;
#125 = DIRECTION ( 'NONE',  ( 4.275831445896958607E-31, 1.000000000000000000, 1.224646799147353207E-16 ) ) ;
#126 = CARTESIAN_POINT ( 'NONE',  ( 1.745740669421566678E-13, 1.199999999999995515, 50.00000000000000000 ) ) ;
#127 = EDGE_CURVE ( 'NONE', #197, #197, #287, .T. ) ;
#128 = CONICAL_SURFACE ( 'NONE', #2, 1.200000000000001732, 0.7853981633974453924 ) ;
#129 = PERSON_AND_ORGANIZATION ( #257, #42 ) ;
#130 = CARTESIAN_POINT ( 'NONE',  ( 6.284666409917640040E-14, 0.9249999999999978240, 18.00000000000000000 ) ) ;
#131 = ORIENTED_EDGE ( 'NONE', *, *, #135, .F. ) ;
#132 = EDGE_LOOP ( 'NONE', ( #226 ) ) ;
#133 = EDGE_CURVE ( 'NONE', #302, #302, #176, .T. ) ;
#134 = ORIENTED_EDGE ( 'NONE', *, *, #76, .F. ) ;
#135 = EDGE_CURVE ( 'NONE', #64, #64, #244, .T. ) ;
#136 = EDGE_LOOP ( 'NONE', ( #199 ) ) ;
#137 = DIRECTION ( 'NONE',  ( 0.0000000000000000000, 1.000000000000000000, 0.0000000000000000000 ) ) ;
#138 = PERSON_AND_ORGANIZATION ( #257, #42 ) ;
#139 = AXIS2_PLACEMENT_3D ( 'NONE', #269, #32, #214 ) ;
#140 = COORDINATED_UNIVERSAL_TIME_OFFSET ( 1, 0, .AHEAD. ) ;
#141 = DIRECTION ( 'NONE',  ( 0.0000000000000000000, 1.000000000000000000, 0.0000000000000000000 ) ) ;
#142 = DATE_TIME_ROLE ( 'classification_date' ) ;
#143 = DIRECTION ( 'NONE',  ( -3.491481338843133355E-15, 1.224646799147353207E-16, -1.000000000000000000 ) ) ;
#144 = CIRCLE ( 'NONE', #91, 0.9553844939755806731 ) ;
#145 = FACE_OUTER_BOUND ( 'NONE', #256, .T. ) ;
#146 = DIRECTION ( 'NONE',  ( -3.491481338843133355E-15, 1.224646799147353207E-16, -1.000000000000000000 ) ) ;
#147 = PRODUCT_DEFINITION_FORMATION_WITH_SPECIFIED_SOURCE ( 'ANY', '', #8, .NOT_KNOWN. ) ;
#148 =( NAMED_UNIT ( * ) PLANE_ANGLE_UNIT ( ) SI_UNIT ( $, .RADIAN. ) );
#149 = CONICAL_SURFACE ( 'NONE', #292, 1.074999999999998845, 0.5235987755982921543 ) ;
#150 = VERTEX_POINT ( 'NONE', #130 ) ;
#151 = APPROVAL_DATE_TIME ( #280, #108 ) ;
#152 = EDGE_LOOP ( 'NONE', ( #86 ) ) ;
#153 = DIRECTION ( 'NONE',  ( 0.0000000000000000000, 1.000000000000000000, 0.0000000000000000000 ) ) ;
#154 = EDGE_LOOP ( 'NONE', ( #27 ) ) ;
#155 = EDGE_LOOP ( 'NONE', ( #284 ) ) ;
#156 = PRODUCT_DEFINITION ( 'UNKNOWN', '', #147, #232 ) ;
#157 = PERSON_AND_ORGANIZATION_ROLE ( 'classification_officer' ) ;
#158 = PERSON_AND_ORGANIZATION ( #257, #42 ) ;
#159 = DIRECTION ( 'NONE',  ( -4.275831445896958607E-31, -1.000000000000000000, -1.224646799147353207E-16 ) ) ;
#160 = FACE_OUTER_BOUND ( 'NONE', #68, .T. ) ;
#161 = CIRCLE ( 'NONE', #139, 1.074999999999998845 ) ;
#162 = CARTESIAN_POINT ( 'NONE',  ( 0.0000000000000000000, 0.0000000000000000000, 0.0000000000000000000 ) ) ;
#163 = DIRECTION ( 'NONE',  ( 4.275831445896958607E-31, 1.000000000000000000, 1.224646799147353207E-16 ) ) ;
#164 = CALENDAR_DATE ( 2021, 1, 12 ) ;
#165 = CARTESIAN_POINT ( 'NONE',  ( 0.0000000000000000000, 0.0000000000000000000, 0.0000000000000000000 ) ) ;
#166 = ADVANCED_FACE ( 'NONE', ( #210, #52 ), #53, .T. ) ;
#167 = DIRECTION ( 'NONE',  ( 0.0000000000000000000, 0.0000000000000000000, 1.000000000000000000 ) ) ;
#168 = PERSON_AND_ORGANIZATION ( #257, #42 ) ;
#169 = ORIENTED_EDGE ( 'NONE', *, *, #246, .T. ) ;
#170 = CC_DESIGN_SECURITY_CLASSIFICATION ( #241, ( #147 ) ) ;
#171 = DIRECTION ( 'NONE',  ( 0.0000000000000000000, 1.000000000000000000, 0.0000000000000000000 ) ) ;
#172 = AXIS2_PLACEMENT_3D ( 'NONE', #78, #184, #274 ) ;
#173 = CARTESIAN_POINT ( 'NONE',  ( 2.883896417162832445E-14, -1.011534696479630343E-15, 8.259807621135337286 ) ) ;
#174 = APPLICATION_CONTEXT ( 'configuration controlled 3d designs of mechanical parts and assemblies' ) ;
#175 = ORIENTED_EDGE ( 'NONE', *, *, #7, .F. ) ;
#176 = CIRCLE ( 'NONE', #57, 1.499999999999996669 ) ;
#177 = ORIENTED_EDGE ( 'NONE', *, *, #20, .T. ) ;
#178 =( GEOMETRIC_REPRESENTATION_CONTEXT ( 3 ) GLOBAL_UNCERTAINTY_ASSIGNED_CONTEXT ( ( #180 ) ) GLOBAL_UNIT_ASSIGNED_CONTEXT ( ( #24, #148, #301 ) ) REPRESENTATION_CONTEXT ( 'NONE', 'WORKASPACE' ) );
#179 = APPROVAL_DATE_TIME ( #262, #237 ) ;
#180 = UNCERTAINTY_MEASURE_WITH_UNIT (LENGTH_MEASURE( 1.000000000000000082E-05 ), #24, 'distance_accuracy_value', 'NONE');
#181 = CARTESIAN_POINT ( 'NONE',  ( -5.872091521647877689E-31, 2.059652447883088751E-32, -1.681833855538673622E-16 ) ) ;
#182 = EDGE_CURVE ( 'NONE', #220, #220, #230, .T. ) ;
#183 = CARTESIAN_POINT ( 'NONE',  ( 2.883896417162832445E-14, -1.011534696479630343E-15, 8.259807621135337286 ) ) ;
#184 = DIRECTION ( 'NONE',  ( 3.491481338843133355E-15, -1.224646799147353207E-16, 1.000000000000000000 ) ) ;
#185 = DIRECTION ( 'NONE',  ( -3.491481338843133355E-15, 1.224646799147353207E-16, -1.000000000000000000 ) ) ;
#186 = PRODUCT_RELATED_PRODUCT_CATEGORY ( 'detail', '', ( #8 ) ) ;
#187 = AXIS2_PLACEMENT_3D ( 'NONE', #96, #143, #125 ) ;
#188 = VERTEX_POINT ( 'NONE', #77 ) ;
#189 = CYLINDRICAL_SURFACE ( 'NONE', #187, 1.074999999999999512 ) ;
#190 = CONICAL_SURFACE ( 'NONE', #66, 0.9249999999999988232, 0.5235987755982937086 ) ;
#191 = DIRECTION ( 'NONE',  ( -4.275831445896958607E-31, -1.000000000000000000, -1.224646799147353207E-16 ) ) ;
#192 = CC_DESIGN_APPROVAL ( #237, ( #147 ) ) ;
#193 = VERTEX_POINT ( 'NONE', #294 ) ;
#194 = CC_DESIGN_PERSON_AND_ORGANIZATION_ASSIGNMENT ( #34, #290, ( #147 ) ) ;
#195 = APPLICATION_PROTOCOL_DEFINITION ( 'international standard', 'config_control_design', 1994, #174 ) ;
#196 = LOCAL_TIME ( 15, 3, 29.00000000000000000, #140 ) ;
#197 = VERTEX_POINT ( 'NONE', #126 ) ;
#198 = ADVANCED_FACE ( 'NONE', ( #160, #121 ), #293, .T. ) ;
#199 = ORIENTED_EDGE ( 'NONE', *, *, #76, .T. ) ;
#200 = ORIENTED_EDGE ( 'NONE', *, *, #7, .T. ) ;
#201 = ADVANCED_FACE ( 'NONE', ( #17 ), #51, .T. ) ;
#202 = AXIS2_PLACEMENT_3D ( 'NONE', #162, #270, #273 ) ;
#203 = EDGE_LOOP ( 'NONE', ( #70 ) ) ;
#204 = ORIENTED_EDGE ( 'NONE', *, *, #62, .T. ) ;
#205 = APPROVAL_DATE_TIME ( #10, #48 ) ;
#206 = AXIS2_PLACEMENT_3D ( 'NONE', #181, #120, #289 ) ;
#207 = APPROVAL_STATUS ( 'not_yet_approved' ) ;
#208 = ADVANCED_FACE ( 'NONE', ( #99, #299 ), #73, .T. ) ;
#209 = FACE_OUTER_BOUND ( 'NONE', #1, .T. ) ;
#210 = FACE_BOUND ( 'NONE', #303, .T. ) ;
#211 = COORDINATED_UNIVERSAL_TIME_OFFSET ( 1, 0, .AHEAD. ) ;
#212 = FACE_BOUND ( 'NONE', #132, .T. ) ;
#213 = FACE_OUTER_BOUND ( 'NONE', #84, .T. ) ;
#214 = DIRECTION ( 'NONE',  ( 3.583125477929744859E-31, 1.000000000000000000, 1.008560160451633084E-16 ) ) ;
#215 = FACE_OUTER_BOUND ( 'NONE', #111, .T. ) ;
#216 = DIRECTION ( 'NONE',  ( -3.491481338843133355E-15, 1.224646799147353207E-16, -1.000000000000000000 ) ) ;
#217 = PLANE ( 'NONE',  #88 ) ;
#218 = DIRECTION ( 'NONE',  ( -3.491481338843133355E-15, 1.224646799147353207E-16, -1.000000000000000000 ) ) ;
#219 = DIRECTION ( 'NONE',  ( 0.0000000000000000000, 1.000000000000000000, 0.0000000000000000000 ) ) ;
#220 = VERTEX_POINT ( 'NONE', #40 ) ;
#221 = TOROIDAL_SURFACE ( 'NONE', #104, 2.925000000000000266, 2.000000000000000444 ) ;
#222 = CARTESIAN_POINT ( 'NONE',  ( 7.484326958959538328E-14, -2.625148515643789720E-15, 21.43596437333213345 ) ) ;
#223 = APPROVAL_STATUS ( 'not_yet_approved' ) ;
#224 = LOCAL_TIME ( 15, 3, 29.00000000000000000, #47 ) ;
#225 = PERSON_AND_ORGANIZATION ( #257, #42 ) ;
#226 = ORIENTED_EDGE ( 'NONE', *, *, #127, .T. ) ;
#227 = CARTESIAN_POINT ( 'NONE',  ( 2.793185071074506684E-14, -9.797174393178825657E-16, 8.000000000000000000 ) ) ;
#228 = EDGE_LOOP ( 'NONE', ( #169 ) ) ;
#229 = APPLICATION_CONTEXT ( 'configuration controlled 3d designs of mechanical parts and assemblies' ) ;
#230 = CIRCLE ( 'NONE', #18, 1.500000000000001554 ) ;
#231 = ORIENTED_EDGE ( 'NONE', *, *, #182, .T. ) ;
#232 = DESIGN_CONTEXT ( 'detailed design', #174, 'design' ) ;
#233 = CLOSED_SHELL ( 'NONE', ( #278, #263, #300, #201 ) ) ;
#234 = LOCAL_TIME ( 15, 3, 29.00000000000000000, #279 ) ;
#235 = CALENDAR_DATE ( 2021, 1, 12 ) ;
#236 = SHAPE_DEFINITION_REPRESENTATION ( #264, #61 ) ;
#237 = APPROVAL ( #93, 'UNSPECIFIED' ) ;
#238 = DIRECTION ( 'NONE',  ( 0.0000000000000000000, -1.000000000000000000, 0.0000000000000000000 ) ) ;
#239 = CARTESIAN_POINT ( 'NONE',  ( -2.936045760823938844E-31, 1.029826223941544376E-32, -8.409169277693368112E-17 ) ) ;
#240 = CARTESIAN_POINT ( 'NONE',  ( 8.728703347107835360E-16, 1.074999999999998845, 0.2500000000000000555 ) ) ;
#241 = SECURITY_CLASSIFICATION ( '', '', #261 ) ;
#242 = DIRECTION ( 'NONE',  ( 4.275831445896958607E-31, 1.000000000000000000, 1.224646799147353207E-16 ) ) ;
#243 = PLANE ( 'NONE',  #248 ) ;
#244 = CIRCLE ( 'NONE', #107, 0.9249999999999988232 ) ;
#245 = CARTESIAN_POINT ( 'NONE',  ( 1.745740669421566678E-13, -6.123233995736766085E-15, 50.00000000000000000 ) ) ;
#246 = EDGE_CURVE ( 'NONE', #150, #150, #75, .T. ) ;
#247 = MECHANICAL_CONTEXT ( 'NONE', #229, 'mechanical' ) ;
#248 = AXIS2_PLACEMENT_3D ( 'NONE', #123, #37, #159 ) ;
#249 = ADVANCED_FACE ( 'NONE', ( #145 ), #243, .F. ) ;
#250 = ADVANCED_FACE ( 'NONE', ( #298, #213 ), #221, .F. ) ;
#251 = CLOSED_SHELL ( 'NONE', ( #249, #98, #198, #250, #166, #208, #297, #3 ) ) ;
#252 = PERSON_AND_ORGANIZATION_ROLE ( 'creator' ) ;
#253 = MANIFOLD_SOLID_BREP ( 'Corps-Déplacer/Copier1[1]', #251 ) ;
#254 = FACE_OUTER_BOUND ( 'NONE', #203, .T. ) ;
#255 = DIRECTION ( 'NONE',  ( 3.491481338843133355E-15, -1.224646799147353207E-16, 1.000000000000000000 ) ) ;
#256 = EDGE_LOOP ( 'NONE', ( #200 ) ) ;
#257 = PERSON ( 'UNSPECIFIED', 'UNSPECIFIED', 'UNSPECIFIED', ('UNSPECIFIED'), ('UNSPECIFIED'), ('UNSPECIFIED') ) ;
#258 = ORIENTED_EDGE ( 'NONE', *, *, #182, .F. ) ;
#259 = CC_DESIGN_DATE_AND_TIME_ASSIGNMENT ( #275, #31, ( #156 ) ) ;
#260 = ORIENTED_EDGE ( 'NONE', *, *, #20, .F. ) ;
#261 = SECURITY_CLASSIFICATION_LEVEL ( 'unclassified' ) ;
#262 = DATE_AND_TIME ( #71, #39 ) ;
#263 = ADVANCED_FACE ( 'NONE', ( #81, #215 ), #149, .T. ) ;
#264 = PRODUCT_DEFINITION_SHAPE ( 'NONE', 'NONE',  #156 ) ;
#265 = CC_DESIGN_PERSON_AND_ORGANIZATION_ASSIGNMENT ( #138, #9, ( #147 ) ) ;
#266 = CARTESIAN_POINT ( 'NONE',  ( 0.0000000000000000000, 0.0000000000000000000, 0.0000000000000000000 ) ) ;
#267 = DATE_AND_TIME ( #288, #196 ) ;
#268 = FACE_OUTER_BOUND ( 'NONE', #90, .T. ) ;
#269 = CARTESIAN_POINT ( 'NONE',  ( 8.728703347107831416E-16, -3.061616997868382402E-17, 0.2499999999999999445 ) ) ;
#270 = DIRECTION ( 'NONE',  ( -3.491481338843133355E-15, 1.224646799147353207E-16, -1.000000000000000000 ) ) ;
#271 = CIRCLE ( 'NONE', #206, 0.9306624327025946330 ) ;
#272 = CC_DESIGN_APPROVAL ( #108, ( #156 ) ) ;
#273 = DIRECTION ( 'NONE',  ( 4.275831445896958607E-31, 1.000000000000000000, 1.224646799147353454E-16 ) ) ;
#274 = DIRECTION ( 'NONE',  ( -4.275831445896958607E-31, -1.000000000000000000, -1.224646799147353207E-16 ) ) ;
#275 = DATE_AND_TIME ( #164, #118 ) ;
#276 = CC_DESIGN_DATE_AND_TIME_ASSIGNMENT ( #267, #142, ( #241 ) ) ;
#277 = DIRECTION ( 'NONE',  ( 1.000000000000000000, 0.0000000000000000000, 0.0000000000000000000 ) ) ;
#278 = ADVANCED_FACE ( 'NONE', ( #100 ), #217, .F. ) ;
#279 = COORDINATED_UNIVERSAL_TIME_OFFSET ( 1, 0, .AHEAD. ) ;
#280 = DATE_AND_TIME ( #106, #234 ) ;
#281 = DIRECTION ( 'NONE',  ( 4.275831445896958607E-31, 1.000000000000000000, 1.224646799147353207E-16 ) ) ;
#282 = AXIS2_PLACEMENT_3D ( 'NONE', #222, #255, #238 ) ;
#283 = DIRECTION ( 'NONE',  ( -3.491481338843133355E-15, 1.224646799147353207E-16, -1.000000000000000000 ) ) ;
#284 = ORIENTED_EDGE ( 'NONE', *, *, #133, .T. ) ;
#285 = DIRECTION ( 'NONE',  ( -3.491481338843133355E-15, 1.224646799147353207E-16, -1.000000000000000000 ) ) ;
#286 = CC_DESIGN_PERSON_AND_ORGANIZATION_ASSIGNMENT ( #158, #157, ( #241 ) ) ;
#287 = CIRCLE ( 'NONE', #21, 1.200000000000001732 ) ;
#288 = CALENDAR_DATE ( 2021, 1, 12 ) ;
#289 = DIRECTION ( 'NONE',  ( 4.275831445896958607E-31, 1.000000000000000000, 1.224646799147352961E-16 ) ) ;
#290 = PERSON_AND_ORGANIZATION_ROLE ( 'creator' ) ;
#291 = FACE_OUTER_BOUND ( 'NONE', #44, .T. ) ;
#292 = AXIS2_PLACEMENT_3D ( 'NONE', #14, #36, #80 ) ;
#293 = CYLINDRICAL_SURFACE ( 'NONE', #41, 0.9249999999999993783 ) ;
#294 = CARTESIAN_POINT ( 'NONE',  ( 6.405924284287275164E-14, 0.9553844939755784527, 18.34729635533384595 ) ) ;
#295 = CIRCLE ( 'NONE', #30, 1.074999999999999956 ) ;
#296 = APPROVAL_PERSON_ORGANIZATION ( #119, #48, #50 ) ;
#297 = ADVANCED_FACE ( 'NONE', ( #268, #212 ), #128, .T. ) ;
#298 = FACE_OUTER_BOUND ( 'NONE', #114, .T. ) ;
#299 = FACE_OUTER_BOUND ( 'NONE', #113, .T. ) ;
#300 = ADVANCED_FACE ( 'NONE', ( #55, #291 ), #189, .T. ) ;
#301 =( NAMED_UNIT ( * ) SI_UNIT ( $, .STERADIAN. ) SOLID_ANGLE_UNIT ( ) );
#302 = VERTEX_POINT ( 'NONE', #65 ) ;
#303 = EDGE_LOOP ( 'NONE', ( #260 ) ) ;
ENDSEC;
END-ISO-10303-21;
