ISO-10303-21;
HEADER;
FILE_DESCRIPTION (( 'STEP AP203' ),
    '1' );
FILE_NAME ('200686.step',
    '2021-12-01T14:03:28',
    ( '' ),
    ( '' ),
    'SwSTEP 2.0',
    'SolidWorks 2019',
    '' );
FILE_SCHEMA (( 'CONFIG_CONTROL_DESIGN' ));
ENDSEC;

DATA;
#1 = AXIS2_PLACEMENT_3D ( 'NONE', #118, #167, #54 ) ;
#2 = VERTEX_POINT ( 'NONE', #228 ) ;
#3 = CARTESIAN_POINT ( 'NONE',  ( 1.735266225405037467E-13, 1.499999999999995559, 49.70000000000000284 ) ) ;
#4 = DIRECTION ( 'NONE',  ( -3.491481338843133355E-15, 1.224646799147353207E-16, -1.000000000000000000 ) ) ;
#5 = CYLINDRICAL_SURFACE ( 'NONE', #150, 1.124999999999999334 ) ;
#6 = EDGE_CURVE ( 'NONE', #30, #30, #106, .T. ) ;
#7 = VERTEX_POINT ( 'NONE', #281 ) ;
#8 = FACE_OUTER_BOUND ( 'NONE', #218, .T. ) ;
#9 = APPROVAL ( #190, 'UNSPECIFIED' ) ;
#10 = FACE_OUTER_BOUND ( 'NONE', #160, .T. ) ;
#11 =( NAMED_UNIT ( * ) PLANE_ANGLE_UNIT ( ) SI_UNIT ( $, .RADIAN. ) );
#12 = EDGE_LOOP ( 'NONE', ( #291 ) ) ;
#13 = FACE_OUTER_BOUND ( 'NONE', #12, .T. ) ;
#14 = ORIENTED_EDGE ( 'NONE', *, *, #191, .F. ) ;
#15 = DIRECTION ( 'NONE',  ( 0.0000000000000000000, 1.000000000000000000, 0.0000000000000000000 ) ) ;
#16 = CIRCLE ( 'NONE', #20, 1.200000000000001732 ) ;
#17 = APPROVAL_ROLE ( '' ) ;
#18 = CLOSED_SHELL ( 'NONE', ( #270, #244, #276, #74, #208, #181, #219, #259 ) ) ;
#19 = DATE_AND_TIME ( #223, #104 ) ;
#20 = AXIS2_PLACEMENT_3D ( 'NONE', #51, #230, #15 ) ;
#21 = CARTESIAN_POINT ( 'NONE',  ( 6.405924284287275164E-14, -2.246895775456749140E-15, 18.34729635533384595 ) ) ;
#22 = APPLICATION_CONTEXT ( 'configuration controlled 3d designs of mechanical parts and assemblies' ) ;
#23 = CIRCLE ( 'NONE', #247, 1.500000000000001554 ) ;
#24 = VERTEX_POINT ( 'NONE', #3 ) ;
#25 = FACE_OUTER_BOUND ( 'NONE', #180, .T. ) ;
#26 = FACE_OUTER_BOUND ( 'NONE', #81, .T. ) ;
#27 = ORIENTED_EDGE ( 'NONE', *, *, #129, .T. ) ;
#28 = CARTESIAN_POINT ( 'NONE',  ( -4.193147267559562817E-31, 1.470758076934691425E-32, -1.200965109253288684E-16 ) ) ;
#29 = CIRCLE ( 'NONE', #299, 1.124999999999998890 ) ;
#30 = VERTEX_POINT ( 'NONE', #156 ) ;
#31 = ORIENTED_EDGE ( 'NONE', *, *, #245, .F. ) ;
#32 = DIRECTION ( 'NONE',  ( -3.491481338843133355E-15, 1.224646799147353207E-16, -1.000000000000000000 ) ) ;
#33 = VERTEX_POINT ( 'NONE', #71 ) ;
#34 = ORIENTED_EDGE ( 'NONE', *, *, #196, .T. ) ;
#35 = APPROVAL ( #192, 'UNSPECIFIED' ) ;
#36 = DIRECTION ( 'NONE',  ( 4.275831445896958607E-31, 1.000000000000000000, 1.224646799147353454E-16 ) ) ;
#37 = CC_DESIGN_APPROVAL ( #9, ( #80 ) ) ;
#38 = CIRCLE ( 'NONE', #110, 1.499999999999996669 ) ;
#39 = PERSON_AND_ORGANIZATION ( #63, #45 ) ;
#40 = PERSON_AND_ORGANIZATION_ROLE ( 'creator' ) ;
#41 = COORDINATED_UNIVERSAL_TIME_OFFSET ( 1, 0, .AHEAD. ) ;
#42 = CARTESIAN_POINT ( 'NONE',  ( 2.883896417162832445E-14, 0.9749999999999977573, 8.259807621135337286 ) ) ;
#43 = ORIENTED_EDGE ( 'NONE', *, *, #6, .T. ) ;
#44 = CARTESIAN_POINT ( 'NONE',  ( 0.0000000000000000000, 0.0000000000000000000, 0.0000000000000000000 ) ) ;
#45 = ORGANIZATION ( 'UNSPECIFIED', 'UNSPECIFIED', '' ) ;
#46 = DIRECTION ( 'NONE',  ( -4.275831445896958607E-31, -1.000000000000000000, -1.224646799147353207E-16 ) ) ;
#47 = FACE_BOUND ( 'NONE', #237, .T. ) ;
#48 = VERTEX_POINT ( 'NONE', #134 ) ;
#49 = CIRCLE ( 'NONE', #72, 0.9749999999999987566 ) ;
#50 = DIRECTION ( 'NONE',  ( 0.0000000000000000000, 1.000000000000000000, 0.0000000000000000000 ) ) ;
#51 = CARTESIAN_POINT ( 'NONE',  ( 1.745740669421566678E-13, -6.123233995736766085E-15, 50.00000000000000000 ) ) ;
#52 = VERTEX_POINT ( 'NONE', #42 ) ;
#53 = ORIENTED_EDGE ( 'NONE', *, *, #240, .T. ) ;
#54 = DIRECTION ( 'NONE',  ( 0.0000000000000000000, 1.000000000000000000, 0.0000000000000000000 ) ) ;
#55 = DIRECTION ( 'NONE',  ( 0.0000000000000000000, 1.000000000000000000, 0.0000000000000000000 ) ) ;
#56 = CIRCLE ( 'NONE', #272, 0.9750000000000001998 ) ;
#57 = EDGE_CURVE ( 'NONE', #48, #48, #56, .T. ) ;
#58 = CC_DESIGN_APPROVAL ( #35, ( #193 ) ) ;
#59 = PERSON_AND_ORGANIZATION ( #63, #45 ) ;
#60 = CIRCLE ( 'NONE', #151, 0.9806624327025942334 ) ;
#61 = APPLICATION_PROTOCOL_DEFINITION ( 'international standard', 'config_control_design', 1994, #246 ) ;
#62 = PRODUCT_RELATED_PRODUCT_CATEGORY ( 'detail', '', ( #178 ) ) ;
#63 = PERSON ( 'UNSPECIFIED', 'UNSPECIFIED', 'UNSPECIFIED', ('UNSPECIFIED'), ('UNSPECIFIED'), ('UNSPECIFIED') ) ;
#64 = DIRECTION ( 'NONE',  ( 0.0000000000000000000, -1.000000000000000000, 0.0000000000000000000 ) ) ;
#65 = EDGE_LOOP ( 'NONE', ( #147 ) ) ;
#66 = CARTESIAN_POINT ( 'NONE',  ( 8.728703347107827472E-16, -3.061616997868381169E-17, 0.2499999999999998335 ) ) ;
#67 = APPROVAL_PERSON_ORGANIZATION ( #173, #35, #17 ) ;
#68 = DIRECTION ( 'NONE',  ( 3.491481338843133355E-15, -1.224646799147353207E-16, 1.000000000000000000 ) ) ;
#69 = CARTESIAN_POINT ( 'NONE',  ( 2.883896417162832445E-14, -1.011534696479630343E-15, 8.259807621135337286 ) ) ;
#70 = DIRECTION ( 'NONE',  ( -4.275831445896958607E-31, -1.000000000000000000, -1.224646799147353207E-16 ) ) ;
#71 = CARTESIAN_POINT ( 'NONE',  ( 7.385321085756959046E-14, 1.499999999999994005, 21.15240028235124115 ) ) ;
#72 = AXIS2_PLACEMENT_3D ( 'NONE', #69, #263, #50 ) ;
#73 = EDGE_LOOP ( 'NONE', ( #94 ) ) ;
#74 = ADVANCED_FACE ( 'NONE', ( #25, #115 ), #187, .F. ) ;
#75 = FACE_OUTER_BOUND ( 'NONE', #166, .T. ) ;
#76 = ORIENTED_EDGE ( 'NONE', *, *, #57, .F. ) ;
#77 = PLANE ( 'NONE',  #136 ) ;
#78 = AXIS2_PLACEMENT_3D ( 'NONE', #141, #100, #238 ) ;
#79 = CC_DESIGN_DATE_AND_TIME_ASSIGNMENT ( #248, #194, ( #80 ) ) ;
#80 = PRODUCT_DEFINITION ( 'UNKNOWN', '', #193, #226 ) ;
#81 = EDGE_LOOP ( 'NONE', ( #285 ) ) ;
#82 = APPROVAL_DATE_TIME ( #107, #35 ) ;
#83 = AXIS2_PLACEMENT_3D ( 'NONE', #164, #189, #264 ) ;
#84 = CALENDAR_DATE ( 2021, 1, 12 ) ;
#85 = AXIS2_PLACEMENT_3D ( 'NONE', #292, #261, #64 ) ;
#86 = APPROVAL_DATE_TIME ( #273, #9 ) ;
#87 = PERSON_AND_ORGANIZATION ( #63, #45 ) ;
#88 = VERTEX_POINT ( 'NONE', #119 ) ;
#89 = DIRECTION ( 'NONE',  ( 4.275831445896959482E-31, 1.000000000000000000, 1.224646799147353207E-16 ) ) ;
#90 = DIRECTION ( 'NONE',  ( -3.491481338843133355E-15, 1.224646799147353207E-16, -1.000000000000000000 ) ) ;
#91 = EDGE_LOOP ( 'NONE', ( #43 ) ) ;
#92 = DIRECTION ( 'NONE',  ( 0.0000000000000000000, 1.000000000000000000, 0.0000000000000000000 ) ) ;
#93 = ORIENTED_EDGE ( 'NONE', *, *, #240, .F. ) ;
#94 = ORIENTED_EDGE ( 'NONE', *, *, #131, .F. ) ;
#95 = FACE_BOUND ( 'NONE', #96, .T. ) ;
#96 = EDGE_LOOP ( 'NONE', ( #31 ) ) ;
#97 = DIRECTION ( 'NONE',  ( -3.423875456688422457E-31, -1.000000000000000000, -1.445602896647340642E-16 ) ) ;
#98 = AXIS2_PLACEMENT_3D ( 'NONE', #44, #116, #36 ) ;
#99 = ORIENTED_EDGE ( 'NONE', *, *, #57, .T. ) ;
#100 = DIRECTION ( 'NONE',  ( -3.491481338843133355E-15, 1.224646799147353207E-16, -1.000000000000000000 ) ) ;
#101 = AXIS2_PLACEMENT_3D ( 'NONE', #290, #266, #159 ) ;
#102 = CIRCLE ( 'NONE', #142, 1.125000000000000000 ) ;
#103 = ADVANCED_FACE ( 'NONE', ( #8 ), #205, .T. ) ;
#104 = LOCAL_TIME ( 15, 3, 28.00000000000000000, #303 ) ;
#105 = CALENDAR_DATE ( 2021, 1, 12 ) ;
#106 = CIRCLE ( 'NONE', #282, 1.125000000000000000 ) ;
#107 = DATE_AND_TIME ( #109, #241 ) ;
#108 = CALENDAR_DATE ( 2021, 1, 12 ) ;
#109 = CALENDAR_DATE ( 2021, 1, 12 ) ;
#110 = AXIS2_PLACEMENT_3D ( 'NONE', #202, #148, #158 ) ;
#111 = SHAPE_DEFINITION_REPRESENTATION ( #138, #195 ) ;
#112 = DIRECTION ( 'NONE',  ( -4.275831445896958607E-31, -1.000000000000000000, -1.224646799147353207E-16 ) ) ;
#113 =( NAMED_UNIT ( * ) SI_UNIT ( $, .STERADIAN. ) SOLID_ANGLE_UNIT ( ) );
#114 = MANIFOLD_SOLID_BREP ( 'Corps-Déplacer/Copier1[1]', #18 ) ;
#115 = FACE_OUTER_BOUND ( 'NONE', #267, .T. ) ;
#116 = DIRECTION ( 'NONE',  ( -3.491481338843133355E-15, 1.224646799147353207E-16, -1.000000000000000000 ) ) ;
#117 = ORIENTED_EDGE ( 'NONE', *, *, #297, .F. ) ;
#118 = CARTESIAN_POINT ( 'NONE',  ( 1.745740669421566678E-13, -6.123233995736766085E-15, 50.00000000000000000 ) ) ;
#119 = CARTESIAN_POINT ( 'NONE',  ( 6.405924284287275164E-14, 1.005384493975577165, 18.34729635533384595 ) ) ;
#120 = EDGE_LOOP ( 'NONE', ( #210 ) ) ;
#121 = FACE_OUTER_BOUND ( 'NONE', #255, .T. ) ;
#122 = APPROVAL_PERSON_ORGANIZATION ( #39, #125, #301 ) ;
#123 = DIRECTION ( 'NONE',  ( -3.491481338843133355E-15, 1.224646799147353207E-16, -1.000000000000000000 ) ) ;
#124 = FACE_BOUND ( 'NONE', #185, .T. ) ;
#125 = APPROVAL ( #221, 'UNSPECIFIED' ) ;
#126 = APPROVAL_PERSON_ORGANIZATION ( #171, #9, #128 ) ;
#127 = LOCAL_TIME ( 15, 3, 28.00000000000000000, #172 ) ;
#128 = APPROVAL_ROLE ( '' ) ;
#129 = EDGE_CURVE ( 'NONE', #254, #254, #29, .T. ) ;
#130 = PERSON_AND_ORGANIZATION ( #63, #45 ) ;
#131 = EDGE_CURVE ( 'NONE', #52, #52, #49, .T. ) ;
#132 = PERSON_AND_ORGANIZATION_ROLE ( 'classification_officer' ) ;
#133 = ADVANCED_FACE ( 'NONE', ( #145 ), #286, .F. ) ;
#134 = CARTESIAN_POINT ( 'NONE',  ( 6.284666409917640040E-14, 0.9749999999999979794, 18.00000000000000000 ) ) ;
#135 = CARTESIAN_POINT ( 'NONE',  ( 2.793185071074506684E-14, -9.797174393178825657E-16, 8.000000000000000000 ) ) ;
#136 = AXIS2_PLACEMENT_3D ( 'NONE', #262, #68, #112 ) ;
#137 = FACE_OUTER_BOUND ( 'NONE', #144, .T. ) ;
#138 = PRODUCT_DEFINITION_SHAPE ( 'NONE', 'NONE',  #80 ) ;
#139 = CARTESIAN_POINT ( 'NONE',  ( 1.735266225405037467E-13, -6.086494591762345225E-15, 49.70000000000000284 ) ) ;
#140 = CARTESIAN_POINT ( 'NONE',  ( 8.728703347107827472E-16, -3.061616997868381169E-17, 0.2499999999999998335 ) ) ;
#141 = CARTESIAN_POINT ( 'NONE',  ( 2.883896417162832445E-14, -1.011534696479630343E-15, 8.259807621135337286 ) ) ;
#142 = AXIS2_PLACEMENT_3D ( 'NONE', #209, #211, #92 ) ;
#143 = CYLINDRICAL_SURFACE ( 'NONE', #274, 0.9749999999999995337 ) ;
#144 = EDGE_LOOP ( 'NONE', ( #27 ) ) ;
#145 = FACE_OUTER_BOUND ( 'NONE', #212, .T. ) ;
#146 = DIRECTION ( 'NONE',  ( -3.491481338843133355E-15, 1.224646799147353207E-16, -1.000000000000000000 ) ) ;
#147 = ORIENTED_EDGE ( 'NONE', *, *, #196, .F. ) ;
#148 = DIRECTION ( 'NONE',  ( -3.491481338843133355E-15, 1.224646799147353207E-16, -1.000000000000000000 ) ) ;
#149 = CC_DESIGN_SECURITY_CLASSIFICATION ( #298, ( #193 ) ) ;
#150 = AXIS2_PLACEMENT_3D ( 'NONE', #268, #32, #283 ) ;
#151 = AXIS2_PLACEMENT_3D ( 'NONE', #28, #206, #89 ) ;
#152 = CC_DESIGN_PERSON_AND_ORGANIZATION_ASSIGNMENT ( #130, #40, ( #80 ) ) ;
#153 = AXIS2_PLACEMENT_3D ( 'NONE', #182, #234, #46 ) ;
#154 = APPLICATION_PROTOCOL_DEFINITION ( 'international standard', 'config_control_design', 1994, #22 ) ;
#155 = CC_DESIGN_PERSON_AND_ORGANIZATION_ASSIGNMENT ( #250, #224, ( #178 ) ) ;
#156 = CARTESIAN_POINT ( 'NONE',  ( 2.793185071074506684E-14, 1.124999999999998890, 8.000000000000000000 ) ) ;
#157 = ORIENTED_EDGE ( 'NONE', *, *, #297, .T. ) ;
#158 = DIRECTION ( 'NONE',  ( 0.0000000000000000000, 1.000000000000000000, 0.0000000000000000000 ) ) ;
#159 = DIRECTION ( 'NONE',  ( 1.000000000000000000, 0.0000000000000000000, 0.0000000000000000000 ) ) ;
#160 = EDGE_LOOP ( 'NONE', ( #93 ) ) ;
#161 = FACE_OUTER_BOUND ( 'NONE', #207, .T. ) ;
#162 = CARTESIAN_POINT ( 'NONE',  ( 0.0000000000000000000, 0.9806624327025942334, 0.0000000000000000000 ) ) ;
#163 = DIRECTION ( 'NONE',  ( -3.491481338843133355E-15, 1.224646799147353207E-16, -1.000000000000000000 ) ) ;
#164 = CARTESIAN_POINT ( 'NONE',  ( 1.745740669421566678E-13, 8.998558695971067645E-33, 50.00000000000000000 ) ) ;
#165 = AXIS2_PLACEMENT_3D ( 'NONE', #66, #289, #97 ) ;
#166 = EDGE_LOOP ( 'NONE', ( #117 ) ) ;
#167 = DIRECTION ( 'NONE',  ( -3.491481338843133355E-15, 1.224646799147353207E-16, -1.000000000000000000 ) ) ;
#168 = CC_DESIGN_DATE_AND_TIME_ASSIGNMENT ( #19, #197, ( #298 ) ) ;
#169 = DIRECTION ( 'NONE',  ( -3.491481338843133355E-15, 1.224646799147353207E-16, -1.000000000000000000 ) ) ;
#170 = ADVANCED_FACE ( 'NONE', ( #13, #179 ), #5, .T. ) ;
#171 = PERSON_AND_ORGANIZATION ( #63, #45 ) ;
#172 = COORDINATED_UNIVERSAL_TIME_OFFSET ( 1, 0, .AHEAD. ) ;
#173 = PERSON_AND_ORGANIZATION ( #63, #45 ) ;
#174 = APPROVAL_DATE_TIME ( #275, #125 ) ;
#175 = CC_DESIGN_APPROVAL ( #125, ( #298 ) ) ;
#176 = VERTEX_POINT ( 'NONE', #162 ) ;
#177 = FACE_OUTER_BOUND ( 'NONE', #65, .T. ) ;
#178 = PRODUCT ( '200686', '200686', '', ( #198 ) ) ;
#179 = FACE_OUTER_BOUND ( 'NONE', #120, .T. ) ;
#180 = EDGE_LOOP ( 'NONE', ( #76 ) ) ;
#181 = ADVANCED_FACE ( 'NONE', ( #177, #121 ), #186, .T. ) ;
#182 = CARTESIAN_POINT ( 'NONE',  ( 2.793185071074506684E-14, 8.436148777472933991E-33, 8.000000000000000000 ) ) ;
#183 = PLANE ( 'NONE',  #83 ) ;
#184 = DIRECTION ( 'NONE',  ( -3.491481338843133355E-15, 1.224646799147353207E-16, -1.000000000000000000 ) ) ;
#185 = EDGE_LOOP ( 'NONE', ( #229 ) ) ;
#186 = CYLINDRICAL_SURFACE ( 'NONE', #98, 1.499999999999999112 ) ;
#187 = TOROIDAL_SURFACE ( 'NONE', #243, 2.974999999999999645, 2.000000000000000000 ) ;
#188 = EDGE_LOOP ( 'NONE', ( #53 ) ) ;
#189 = DIRECTION ( 'NONE',  ( -3.491481338843133355E-15, 1.224646799147353207E-16, -1.000000000000000000 ) ) ;
#190 = APPROVAL_STATUS ( 'not_yet_approved' ) ;
#191 = EDGE_CURVE ( 'NONE', #7, #7, #102, .T. ) ;
#192 = APPROVAL_STATUS ( 'not_yet_approved' ) ;
#193 = PRODUCT_DEFINITION_FORMATION_WITH_SPECIFIED_SOURCE ( 'ANY', '', #178, .NOT_KNOWN. ) ;
#194 = DATE_TIME_ROLE ( 'creation_date' ) ;
#195 = ADVANCED_BREP_SHAPE_REPRESENTATION ( '200686', ( #114, #213, #101 ), #296 ) ;
#196 = EDGE_CURVE ( 'NONE', #33, #33, #38, .T. ) ;
#197 = DATE_TIME_ROLE ( 'classification_date' ) ;
#198 = MECHANICAL_CONTEXT ( 'NONE', #246, 'mechanical' ) ;
#199 = DIRECTION ( 'NONE',  ( 4.275831445896958607E-31, 1.000000000000000000, 1.224646799147353207E-16 ) ) ;
#200 = CARTESIAN_POINT ( 'NONE',  ( 0.0000000000000000000, 0.0000000000000000000, 0.0000000000000000000 ) ) ;
#201 = CARTESIAN_POINT ( 'NONE',  ( 6.284666409917640040E-14, -2.168404344971008868E-15, 18.00000000000000000 ) ) ;
#202 = CARTESIAN_POINT ( 'NONE',  ( 7.385321085756959046E-14, -2.590421930006501834E-15, 21.15240028235124115 ) ) ;
#203 = ADVANCED_FACE ( 'NONE', ( #95, #137 ), #265, .T. ) ;
#204 =( LENGTH_UNIT ( ) NAMED_UNIT ( * ) SI_UNIT ( .MILLI., .METRE. ) );
#205 = PLANE ( 'NONE',  #153 ) ;
#206 = DIRECTION ( 'NONE',  ( -3.491481338843133355E-15, 1.224646799147353207E-16, -1.000000000000000000 ) ) ;
#207 = EDGE_LOOP ( 'NONE', ( #34 ) ) ;
#208 = ADVANCED_FACE ( 'NONE', ( #124, #161 ), #217, .T. ) ;
#209 = CARTESIAN_POINT ( 'NONE',  ( 2.793185071074506684E-14, -9.797174393178825657E-16, 8.000000000000000000 ) ) ;
#210 = ORIENTED_EDGE ( 'NONE', *, *, #191, .T. ) ;
#211 = DIRECTION ( 'NONE',  ( -3.491481338843133355E-15, 1.224646799147353207E-16, -1.000000000000000000 ) ) ;
#212 = EDGE_LOOP ( 'NONE', ( #249 ) ) ;
#213 = MANIFOLD_SOLID_BREP ( 'Corps-Déplacer/Copier1[2]', #239 ) ;
#214 = LOCAL_TIME ( 15, 3, 28.00000000000000000, #222 ) ;
#215 = CC_DESIGN_PERSON_AND_ORGANIZATION_ASSIGNMENT ( #300, #132, ( #298 ) ) ;
#216 = ORIENTED_EDGE ( 'NONE', *, *, #271, .T. ) ;
#217 = CONICAL_SURFACE ( 'NONE', #85, 1.499999999999996669, 0.1745329251994265085 ) ;
#218 = EDGE_LOOP ( 'NONE', ( #14 ) ) ;
#219 = ADVANCED_FACE ( 'NONE', ( #75, #233 ), #293, .T. ) ;
#220 = CC_DESIGN_PERSON_AND_ORGANIZATION_ASSIGNMENT ( #59, #278, ( #193 ) ) ;
#221 = APPROVAL_STATUS ( 'not_yet_approved' ) ;
#222 = COORDINATED_UNIVERSAL_TIME_OFFSET ( 1, 0, .AHEAD. ) ;
#223 = CALENDAR_DATE ( 2021, 1, 12 ) ;
#224 = PERSON_AND_ORGANIZATION_ROLE ( 'design_owner' ) ;
#225 = CONICAL_SURFACE ( 'NONE', #78, 0.9749999999999987566, 0.5235987755982937086 ) ;
#226 = DESIGN_CONTEXT ( 'detailed design', #22, 'design' ) ;
#227 = CIRCLE ( 'NONE', #302, 1.005384493975579385 ) ;
#228 = CARTESIAN_POINT ( 'NONE',  ( 1.745740669421566678E-13, 1.199999999999995515, 50.00000000000000000 ) ) ;
#229 = ORIENTED_EDGE ( 'NONE', *, *, #271, .F. ) ;
#230 = DIRECTION ( 'NONE',  ( -3.491481338843133355E-15, 1.224646799147353207E-16, -1.000000000000000000 ) ) ;
#231 = CARTESIAN_POINT ( 'NONE',  ( 8.728703347107831416E-16, 1.124999999999998890, 0.2500000000000000000 ) ) ;
#232 = DIRECTION ( 'NONE',  ( 0.0000000000000000000, 1.000000000000000000, 0.0000000000000000000 ) ) ;
#233 = FACE_BOUND ( 'NONE', #188, .T. ) ;
#234 = DIRECTION ( 'NONE',  ( 3.491481338843133355E-15, -1.224646799147353207E-16, 1.000000000000000000 ) ) ;
#235 = CARTESIAN_POINT ( 'NONE',  ( -2.096573633779781409E-31, 7.353790384673457127E-33, -6.004825546266443419E-17 ) ) ;
#236 = DIRECTION ( 'NONE',  ( 0.0000000000000000000, 1.000000000000000000, 0.0000000000000000000 ) ) ;
#237 = EDGE_LOOP ( 'NONE', ( #280 ) ) ;
#238 = DIRECTION ( 'NONE',  ( 0.0000000000000000000, 1.000000000000000000, 0.0000000000000000000 ) ) ;
#239 = CLOSED_SHELL ( 'NONE', ( #133, #203, #170, #103 ) ) ;
#240 = EDGE_CURVE ( 'NONE', #2, #2, #16, .T. ) ;
#241 = LOCAL_TIME ( 15, 3, 28.00000000000000000, #277 ) ;
#242 = AXIS2_PLACEMENT_3D ( 'NONE', #235, #256, #70 ) ;
#243 = AXIS2_PLACEMENT_3D ( 'NONE', #201, #4, #260 ) ;
#244 = ADVANCED_FACE ( 'NONE', ( #26, #47 ), #225, .T. ) ;
#245 = EDGE_CURVE ( 'NONE', #176, #176, #60, .T. ) ;
#246 = APPLICATION_CONTEXT ( 'configuration controlled 3d designs of mechanical parts and assemblies' ) ;
#247 = AXIS2_PLACEMENT_3D ( 'NONE', #139, #146, #236 ) ;
#248 = DATE_AND_TIME ( #105, #257 ) ;
#249 = ORIENTED_EDGE ( 'NONE', *, *, #245, .T. ) ;
#250 = PERSON_AND_ORGANIZATION ( #63, #45 ) ;
#251 = PERSON_AND_ORGANIZATION_ROLE ( 'creator' ) ;
#252 = SECURITY_CLASSIFICATION_LEVEL ( 'unclassified' ) ;
#253 = UNCERTAINTY_MEASURE_WITH_UNIT (LENGTH_MEASURE( 1.000000000000000082E-05 ), #204, 'distance_accuracy_value', 'NONE');
#254 = VERTEX_POINT ( 'NONE', #231 ) ;
#255 = EDGE_LOOP ( 'NONE', ( #157 ) ) ;
#256 = DIRECTION ( 'NONE',  ( 3.491481338843133355E-15, -1.224646799147353207E-16, 1.000000000000000000 ) ) ;
#257 = LOCAL_TIME ( 15, 3, 28.00000000000000000, #41 ) ;
#258 = FACE_OUTER_BOUND ( 'NONE', #294, .T. ) ;
#259 = ADVANCED_FACE ( 'NONE', ( #10 ), #183, .F. ) ;
#260 = DIRECTION ( 'NONE',  ( 4.275831445896958607E-31, 1.000000000000000000, 1.224646799147353207E-16 ) ) ;
#261 = DIRECTION ( 'NONE',  ( 3.491481338843133355E-15, -1.224646799147353207E-16, 1.000000000000000000 ) ) ;
#262 = CARTESIAN_POINT ( 'NONE',  ( 2.793185071074506684E-14, 8.436148777472933991E-33, 8.000000000000000000 ) ) ;
#263 = DIRECTION ( 'NONE',  ( -3.491481338843133355E-15, 1.224646799147353207E-16, -1.000000000000000000 ) ) ;
#264 = DIRECTION ( 'NONE',  ( 4.275831445896958607E-31, 1.000000000000000000, 1.224646799147353207E-16 ) ) ;
#265 = CONICAL_SURFACE ( 'NONE', #165, 1.124999999999998890, 0.5235987755982934866 ) ;
#266 = DIRECTION ( 'NONE',  ( 0.0000000000000000000, 0.0000000000000000000, 1.000000000000000000 ) ) ;
#267 = EDGE_LOOP ( 'NONE', ( #216 ) ) ;
#268 = CARTESIAN_POINT ( 'NONE',  ( 0.0000000000000000000, 0.0000000000000000000, 0.0000000000000000000 ) ) ;
#269 = CARTESIAN_POINT ( 'NONE',  ( 6.284666409917640040E-14, -2.204364238465235428E-15, 18.00000000000000000 ) ) ;
#270 = ADVANCED_FACE ( 'NONE', ( #295 ), #77, .F. ) ;
#271 = EDGE_CURVE ( 'NONE', #88, #88, #227, .T. ) ;
#272 = AXIS2_PLACEMENT_3D ( 'NONE', #269, #123, #55 ) ;
#273 = DATE_AND_TIME ( #108, #214 ) ;
#274 = AXIS2_PLACEMENT_3D ( 'NONE', #200, #90, #199 ) ;
#275 = DATE_AND_TIME ( #84, #127 ) ;
#276 = ADVANCED_FACE ( 'NONE', ( #287, #258 ), #143, .T. ) ;
#277 = COORDINATED_UNIVERSAL_TIME_OFFSET ( 1, 0, .AHEAD. ) ;
#278 = PERSON_AND_ORGANIZATION_ROLE ( 'design_supplier' ) ;
#279 = CC_DESIGN_PERSON_AND_ORGANIZATION_ASSIGNMENT ( #87, #251, ( #193 ) ) ;
#280 = ORIENTED_EDGE ( 'NONE', *, *, #131, .T. ) ;
#281 = CARTESIAN_POINT ( 'NONE',  ( 2.793185071074506684E-14, 1.124999999999998890, 8.000000000000000000 ) ) ;
#282 = AXIS2_PLACEMENT_3D ( 'NONE', #135, #169, #232 ) ;
#283 = DIRECTION ( 'NONE',  ( 4.275831445896958607E-31, 1.000000000000000000, 1.224646799147352961E-16 ) ) ;
#284 = DIRECTION ( 'NONE',  ( 0.0000000000000000000, 1.000000000000000000, 0.0000000000000000000 ) ) ;
#285 = ORIENTED_EDGE ( 'NONE', *, *, #6, .F. ) ;
#286 = PLANE ( 'NONE',  #242 ) ;
#287 = FACE_OUTER_BOUND ( 'NONE', #73, .T. ) ;
#288 = DIRECTION ( 'NONE',  ( 3.423875456688422457E-31, 1.000000000000000000, 1.445602896647340642E-16 ) ) ;
#289 = DIRECTION ( 'NONE',  ( 3.491481338843133355E-15, -1.224646799147353207E-16, 1.000000000000000000 ) ) ;
#290 = CARTESIAN_POINT ( 'NONE',  ( 0.0000000000000000000, 0.0000000000000000000, 0.0000000000000000000 ) ) ;
#291 = ORIENTED_EDGE ( 'NONE', *, *, #129, .F. ) ;
#292 = CARTESIAN_POINT ( 'NONE',  ( 7.385321085756959046E-14, -2.590421930006501834E-15, 21.15240028235124115 ) ) ;
#293 = CONICAL_SURFACE ( 'NONE', #1, 1.200000000000001732, 0.7853981633974453924 ) ;
#294 = EDGE_LOOP ( 'NONE', ( #99 ) ) ;
#295 = FACE_OUTER_BOUND ( 'NONE', #91, .T. ) ;
#296 =( GEOMETRIC_REPRESENTATION_CONTEXT ( 3 ) GLOBAL_UNCERTAINTY_ASSIGNED_CONTEXT ( ( #253 ) ) GLOBAL_UNIT_ASSIGNED_CONTEXT ( ( #204, #11, #113 ) ) REPRESENTATION_CONTEXT ( 'NONE', 'WORKASPACE' ) );
#297 = EDGE_CURVE ( 'NONE', #24, #24, #23, .T. ) ;
#298 = SECURITY_CLASSIFICATION ( '', '', #252 ) ;
#299 = AXIS2_PLACEMENT_3D ( 'NONE', #140, #163, #288 ) ;
#300 = PERSON_AND_ORGANIZATION ( #63, #45 ) ;
#301 = APPROVAL_ROLE ( '' ) ;
#302 = AXIS2_PLACEMENT_3D ( 'NONE', #21, #184, #284 ) ;
#303 = COORDINATED_UNIVERSAL_TIME_OFFSET ( 1, 0, .AHEAD. ) ;
ENDSEC;
END-ISO-10303-21;
