ISO-10303-21;
HEADER;
FILE_DESCRIPTION (( 'STEP AP203' ),
    '1' );
FILE_NAME ('200685.step',
    '2021-12-02T07:09:08',
    ( '' ),
    ( '' ),
    'SwSTEP 2.0',
    'SolidWorks 2019',
    '' );
FILE_SCHEMA (( 'CONFIG_CONTROL_DESIGN' ));
ENDSEC;

DATA;
#1 = LOCAL_TIME ( 8, 9, 8.000000000000000000, #176 ) ;
#2 = DIRECTION ( 'NONE',  ( 0.0000000000000000000, 1.000000000000000000, 0.0000000000000000000 ) ) ;
#3 = ORIENTED_EDGE ( 'NONE', *, *, #43, .F. ) ;
#4 = CC_DESIGN_PERSON_AND_ORGANIZATION_ASSIGNMENT ( #126, #79, ( #247 ) ) ;
#5 =( LENGTH_UNIT ( ) NAMED_UNIT ( * ) SI_UNIT ( .MILLI., .METRE. ) );
#6 = ORIENTED_EDGE ( 'NONE', *, *, #89, .T. ) ;
#7 = AXIS2_PLACEMENT_3D ( 'NONE', #55, #105, #56 ) ;
#8 = EDGE_CURVE ( 'NONE', #10, #10, #64, .T. ) ;
#9 = CARTESIAN_POINT ( 'NONE',  ( 3.491481338843133355E-14, 9.560968614469324460E-33, 10.00000000000000000 ) ) ;
#10 = VERTEX_POINT ( 'NONE', #72 ) ;
#11 = CARTESIAN_POINT ( 'NONE',  ( 8.728703347107829444E-16, -3.061616997868382402E-17, 0.2499999999999998890 ) ) ;
#12 = APPROVAL_ROLE ( '' ) ;
#13 = SECURITY_CLASSIFICATION_LEVEL ( 'unclassified' ) ;
#14 = AXIS2_PLACEMENT_3D ( 'NONE', #58, #80, #144 ) ;
#15 = ORGANIZATION ( 'UNSPECIFIED', 'UNSPECIFIED', '' ) ;
#16 = PERSON_AND_ORGANIZATION_ROLE ( 'design_supplier' ) ;
#17 = APPROVAL_STATUS ( 'not_yet_approved' ) ;
#18 = EDGE_CURVE ( 'NONE', #32, #32, #265, .T. ) ;
#19 = AXIS2_PLACEMENT_3D ( 'NONE', #50, #253, #231 ) ;
#20 = DIRECTION ( 'NONE',  ( -3.491481338843133355E-15, 1.224646799147353454E-16, -1.000000000000000000 ) ) ;
#21 = EDGE_LOOP ( 'NONE', ( #6 ) ) ;
#22 = AXIS2_PLACEMENT_3D ( 'NONE', #158, #92, #145 ) ;
#23 = DIRECTION ( 'NONE',  ( 4.275831445896959482E-31, 1.000000000000000000, 1.224646799147353454E-16 ) ) ;
#24 = EDGE_LOOP ( 'NONE', ( #78 ) ) ;
#25 = DIRECTION ( 'NONE',  ( -3.491481338843133355E-15, 1.224646799147353454E-16, -1.000000000000000000 ) ) ;
#26 = PLANE ( 'NONE',  #44 ) ;
#27 = ADVANCED_FACE ( 'NONE', ( #146, #234 ), #237, .T. ) ;
#28 = CIRCLE ( 'NONE', #87, 1.200000000000002842 ) ;
#29 = AXIS2_PLACEMENT_3D ( 'NONE', #168, #36, #291 ) ;
#30 = CARTESIAN_POINT ( 'NONE',  ( 2.129803616694311221E-13, -7.470345474798856659E-15, 61.00000000000000000 ) ) ;
#31 = EDGE_LOOP ( 'NONE', ( #149 ) ) ;
#32 = VERTEX_POINT ( 'NONE', #60 ) ;
#33 = DIRECTION ( 'NONE',  ( -3.491481338843133355E-15, 1.224646799147353454E-16, -1.000000000000000000 ) ) ;
#34 = AXIS2_PLACEMENT_3D ( 'NONE', #94, #280, #96 ) ;
#35 = APPROVAL_PERSON_ORGANIZATION ( #258, #127, #12 ) ;
#36 = DIRECTION ( 'NONE',  ( 0.0000000000000000000, 0.0000000000000000000, 1.000000000000000000 ) ) ;
#37 = DIRECTION ( 'NONE',  ( -3.491481338843133355E-15, 1.224646799147353454E-16, -1.000000000000000000 ) ) ;
#38 = EDGE_LOOP ( 'NONE', ( #189 ) ) ;
#39 = APPROVAL_DATE_TIME ( #293, #127 ) ;
#40 = EDGE_CURVE ( 'NONE', #102, #102, #41, .T. ) ;
#41 = CIRCLE ( 'NONE', #82, 1.075000000000000178 ) ;
#42 = CALENDAR_DATE ( 2021, 2, 12 ) ;
#43 = EDGE_CURVE ( 'NONE', #75, #75, #172, .T. ) ;
#44 = AXIS2_PLACEMENT_3D ( 'NONE', #183, #71, #204 ) ;
#45 = FACE_OUTER_BOUND ( 'NONE', #38, .T. ) ;
#46 = EDGE_LOOP ( 'NONE', ( #59 ) ) ;
#47 = CARTESIAN_POINT ( 'NONE',  ( 0.0000000000000000000, 0.0000000000000000000, 0.0000000000000000000 ) ) ;
#48 = CONICAL_SURFACE ( 'NONE', #69, 1.074999999999998845, 0.5235987755982932645 ) ;
#49 = AXIS2_PLACEMENT_3D ( 'NONE', #30, #251, #2 ) ;
#50 = CARTESIAN_POINT ( 'NONE',  ( 2.119329172677781757E-13, -7.433606070824434221E-15, 60.69999999999999574 ) ) ;
#51 = CC_DESIGN_PERSON_AND_ORGANIZATION_ASSIGNMENT ( #156, #112, ( #98 ) ) ;
#52 = CYLINDRICAL_SURFACE ( 'NONE', #223, 1.074999999999999512 ) ;
#53 = EDGE_LOOP ( 'NONE', ( #100 ) ) ;
#54 = COORDINATED_UNIVERSAL_TIME_OFFSET ( 1, 0, .AHEAD. ) ;
#55 = CARTESIAN_POINT ( 'NONE',  ( 7.885605607120418317E-14, -2.765898118561394778E-15, 22.58527210038943522 ) ) ;
#56 = DIRECTION ( 'NONE',  ( 0.0000000000000000000, 1.000000000000000000, 0.0000000000000000000 ) ) ;
#57 = CARTESIAN_POINT ( 'NONE',  ( 3.491481338843133355E-14, 1.274999999999998579, 10.00000000000000000 ) ) ;
#58 = CARTESIAN_POINT ( 'NONE',  ( 3.612429800294233528E-14, -1.267069808696350490E-15, 10.34641016151378246 ) ) ;
#59 = ORIENTED_EDGE ( 'NONE', *, *, #8, .T. ) ;
#60 = CARTESIAN_POINT ( 'NONE',  ( 7.885605607120418317E-14, 1.499999999999992673, 22.58527210038943522 ) ) ;
#61 = COORDINATED_UNIVERSAL_TIME_OFFSET ( 1, 0, .AHEAD. ) ;
#62 = APPROVAL_ROLE ( '' ) ;
#63 = ADVANCED_FACE ( 'NONE', ( #215 ), #239, .T. ) ;
#64 = CIRCLE ( 'NONE', #14, 1.074999999999998845 ) ;
#65 = PLANE ( 'NONE',  #22 ) ;
#66 = CC_DESIGN_PERSON_AND_ORGANIZATION_ASSIGNMENT ( #110, #16, ( #98 ) ) ;
#67 = ORIENTED_EDGE ( 'NONE', *, *, #8, .F. ) ;
#68 = CARTESIAN_POINT ( 'NONE',  ( 8.728703347107829444E-16, -3.061616997868382402E-17, 0.2499999999999998890 ) ) ;
#69 = AXIS2_PLACEMENT_3D ( 'NONE', #203, #301, #225 ) ;
#70 = CARTESIAN_POINT ( 'NONE',  ( 6.982962677686266711E-14, -2.602085213965210642E-15, 20.00000000000000000 ) ) ;
#71 = DIRECTION ( 'NONE',  ( -3.491481338843133355E-15, 1.224646799147353454E-16, -1.000000000000000000 ) ) ;
#72 = CARTESIAN_POINT ( 'NONE',  ( 3.612429800294233528E-14, 1.074999999999997513, 10.34641016151378246 ) ) ;
#73 = DIRECTION ( 'NONE',  ( -3.491481338843133355E-15, 1.224646799147353454E-16, -1.000000000000000000 ) ) ;
#74 = CIRCLE ( 'NONE', #177, 1.274999999999999911 ) ;
#75 = VERTEX_POINT ( 'NONE', #165 ) ;
#76 = ORIENTED_EDGE ( 'NONE', *, *, #18, .F. ) ;
#77 = VERTEX_POINT ( 'NONE', #211 ) ;
#78 = ORIENTED_EDGE ( 'NONE', *, *, #89, .F. ) ;
#79 = PERSON_AND_ORGANIZATION_ROLE ( 'design_owner' ) ;
#80 = DIRECTION ( 'NONE',  ( -3.491481338843133355E-15, 1.224646799147353454E-16, -1.000000000000000000 ) ) ;
#81 = PRODUCT_DEFINITION ( 'UNKNOWN', '', #98, #151 ) ;
#82 = AXIS2_PLACEMENT_3D ( 'NONE', #262, #123, #212 ) ;
#83 = CC_DESIGN_APPROVAL ( #284, ( #119 ) ) ;
#84 = CARTESIAN_POINT ( 'NONE',  ( 2.129803616694311221E-13, 1.199999999999995515, 61.00000000000000000 ) ) ;
#85 = CALENDAR_DATE ( 2021, 2, 12 ) ;
#86 = CALENDAR_DATE ( 2021, 2, 12 ) ;
#87 = AXIS2_PLACEMENT_3D ( 'NONE', #152, #104, #131 ) ;
#88 = PERSON_AND_ORGANIZATION ( #205, #15 ) ;
#89 = EDGE_CURVE ( 'NONE', #261, #261, #155, .T. ) ;
#90 = CARTESIAN_POINT ( 'NONE',  ( 7.885605607120418317E-14, -2.765898118561394778E-15, 22.58527210038943522 ) ) ;
#91 = AXIS2_PLACEMENT_3D ( 'NONE', #9, #107, #171 ) ;
#92 = DIRECTION ( 'NONE',  ( 3.491481338843133355E-15, -1.224646799147353454E-16, 1.000000000000000000 ) ) ;
#93 = ORIENTED_EDGE ( 'NONE', *, *, #121, .F. ) ;
#94 = CARTESIAN_POINT ( 'NONE',  ( 7.104220552055900573E-14, -2.491825135286219831E-15, 20.34729635533384240 ) ) ;
#95 = ADVANCED_FACE ( 'NONE', ( #292, #267 ), #125, .T. ) ;
#96 = DIRECTION ( 'NONE',  ( 0.0000000000000000000, 1.000000000000000000, 0.0000000000000000000 ) ) ;
#97 = CIRCLE ( 'NONE', #34, 1.105384493975580806 ) ;
#98 = PRODUCT_DEFINITION_FORMATION_WITH_SPECIFIED_SOURCE ( 'ANY', '', #247, .NOT_KNOWN. ) ;
#99 = CARTESIAN_POINT ( 'NONE',  ( 3.491481338843133355E-14, -1.224646799147353454E-15, 10.00000000000000000 ) ) ;
#100 = ORIENTED_EDGE ( 'NONE', *, *, #40, .F. ) ;
#101 = CARTESIAN_POINT ( 'NONE',  ( 3.491481338843133355E-14, 1.274999999999998579, 10.00000000000000000 ) ) ;
#102 = VERTEX_POINT ( 'NONE', #106 ) ;
#103 = EDGE_LOOP ( 'NONE', ( #209 ) ) ;
#104 = DIRECTION ( 'NONE',  ( -3.491481338843133355E-15, 1.224646799147353454E-16, -1.000000000000000000 ) ) ;
#105 = DIRECTION ( 'NONE',  ( -3.491481338843133355E-15, 1.224646799147353454E-16, -1.000000000000000000 ) ) ;
#106 = CARTESIAN_POINT ( 'NONE',  ( 6.982962677686266711E-14, 1.074999999999997735, 20.00000000000000000 ) ) ;
#107 = DIRECTION ( 'NONE',  ( 3.491481338843133355E-15, -1.224646799147353454E-16, 1.000000000000000000 ) ) ;
#108 = ADVANCED_FACE ( 'NONE', ( #185, #229 ), #48, .T. ) ;
#109 = CC_DESIGN_APPROVAL ( #127, ( #81 ) ) ;
#110 = PERSON_AND_ORGANIZATION ( #205, #15 ) ;
#111 = DATE_TIME_ROLE ( 'classification_date' ) ;
#112 = PERSON_AND_ORGANIZATION_ROLE ( 'creator' ) ;
#113 = EDGE_CURVE ( 'NONE', #77, #77, #224, .T. ) ;
#114 = DIRECTION ( 'NONE',  ( 0.0000000000000000000, 1.000000000000000000, 0.0000000000000000000 ) ) ;
#115 = AXIS2_PLACEMENT_3D ( 'NONE', #68, #254, #136 ) ;
#116 = FACE_BOUND ( 'NONE', #128, .T. ) ;
#117 = DIRECTION ( 'NONE',  ( 4.275831445896960358E-31, 1.000000000000000000, 1.224646799147353454E-16 ) ) ;
#118 = EDGE_LOOP ( 'NONE', ( #130 ) ) ;
#119 = SECURITY_CLASSIFICATION ( '', '', #13 ) ;
#120 = FACE_OUTER_BOUND ( 'NONE', #242, .T. ) ;
#121 = EDGE_CURVE ( 'NONE', #285, #285, #238, .T. ) ;
#122 =( NAMED_UNIT ( * ) SI_UNIT ( $, .STERADIAN. ) SOLID_ANGLE_UNIT ( ) );
#123 = DIRECTION ( 'NONE',  ( -3.491481338843133355E-15, 1.224646799147353454E-16, -1.000000000000000000 ) ) ;
#124 = DIRECTION ( 'NONE',  ( 4.531599869146442659E-31, 1.000000000000000000, 1.275531967630006725E-16 ) ) ;
#125 = CONICAL_SURFACE ( 'NONE', #49, 1.200000000000002842, 0.7853981633974453924 ) ;
#126 = PERSON_AND_ORGANIZATION ( #205, #15 ) ;
#127 = APPROVAL ( #129, 'UNSPECIFIED' ) ;
#128 = EDGE_LOOP ( 'NONE', ( #93 ) ) ;
#129 = APPROVAL_STATUS ( 'not_yet_approved' ) ;
#130 = ORIENTED_EDGE ( 'NONE', *, *, #180, .T. ) ;
#131 = DIRECTION ( 'NONE',  ( 0.0000000000000000000, 1.000000000000000000, 0.0000000000000000000 ) ) ;
#132 = AXIS2_PLACEMENT_3D ( 'NONE', #70, #25, #23 ) ;
#133 = APPROVAL_DATE_TIME ( #244, #284 ) ;
#134 = CC_DESIGN_PERSON_AND_ORGANIZATION_ASSIGNMENT ( #294, #179, ( #119 ) ) ;
#135 = DIRECTION ( 'NONE',  ( -3.491481338843133355E-15, 1.224646799147353454E-16, -1.000000000000000000 ) ) ;
#136 = DIRECTION ( 'NONE',  ( -4.531599869146442659E-31, -1.000000000000000000, -1.275531967630006725E-16 ) ) ;
#137 = FACE_OUTER_BOUND ( 'NONE', #166, .T. ) ;
#138 = CYLINDRICAL_SURFACE ( 'NONE', #245, 1.499999999999999112 ) ;
#139 = EDGE_LOOP ( 'NONE', ( #191 ) ) ;
#140 = FACE_OUTER_BOUND ( 'NONE', #153, .T. ) ;
#141 = ADVANCED_FACE ( 'NONE', ( #187, #283 ), #181, .F. ) ;
#142 = CC_DESIGN_APPROVAL ( #157, ( #98 ) ) ;
#143 = CARTESIAN_POINT ( 'NONE',  ( 3.491481338843133355E-14, 9.560968614469324460E-33, 10.00000000000000000 ) ) ;
#144 = DIRECTION ( 'NONE',  ( 0.0000000000000000000, 1.000000000000000000, 0.0000000000000000000 ) ) ;
#145 = DIRECTION ( 'NONE',  ( -4.275831445896959482E-31, -1.000000000000000000, -1.224646799147353454E-16 ) ) ;
#146 = FACE_OUTER_BOUND ( 'NONE', #163, .T. ) ;
#147 = EDGE_CURVE ( 'NONE', #233, #233, #74, .T. ) ;
#148 = PLANE ( 'NONE',  #190 ) ;
#149 = ORIENTED_EDGE ( 'NONE', *, *, #147, .T. ) ;
#150 = AXIS2_PLACEMENT_3D ( 'NONE', #286, #73, #217 ) ;
#151 = DESIGN_CONTEXT ( 'detailed design', #235, 'design' ) ;
#152 = CARTESIAN_POINT ( 'NONE',  ( 2.129803616694311221E-13, -7.470345474798856659E-15, 61.00000000000000000 ) ) ;
#153 = EDGE_LOOP ( 'NONE', ( #226 ) ) ;
#154 = CALENDAR_DATE ( 2021, 2, 12 ) ;
#155 = CIRCLE ( 'NONE', #297, 1.274999999999999911 ) ;
#156 = PERSON_AND_ORGANIZATION ( #205, #15 ) ;
#157 = APPROVAL ( #17, 'UNSPECIFIED' ) ;
#158 = CARTESIAN_POINT ( 'NONE',  ( 1.594108036744127683E-31, -5.591378315487762672E-33, 4.565706879224848399E-17 ) ) ;
#159 = EDGE_LOOP ( 'NONE', ( #202 ) ) ;
#160 = DIRECTION ( 'NONE',  ( 4.275831445896958607E-31, 1.000000000000000000, 1.224646799147353454E-16 ) ) ;
#161 = FACE_OUTER_BOUND ( 'NONE', #279, .T. ) ;
#162 = DIRECTION ( 'NONE',  ( 4.275831445896960358E-31, 1.000000000000000000, 1.224646799147353454E-16 ) ) ;
#163 = EDGE_LOOP ( 'NONE', ( #3 ) ) ;
#164 = ORIENTED_EDGE ( 'NONE', *, *, #147, .F. ) ;
#165 = CARTESIAN_POINT ( 'NONE',  ( 8.728703347107835360E-16, 1.274999999999998579, 0.2500000000000000555 ) ) ;
#166 = EDGE_LOOP ( 'NONE', ( #67 ) ) ;
#167 = ADVANCED_FACE ( 'NONE', ( #116, #161 ), #213, .T. ) ;
#168 = CARTESIAN_POINT ( 'NONE',  ( 0.0000000000000000000, 0.0000000000000000000, 0.0000000000000000000 ) ) ;
#169 = ORIENTED_EDGE ( 'NONE', *, *, #180, .F. ) ;
#170 = APPLICATION_PROTOCOL_DEFINITION ( 'international standard', 'config_control_design', 1994, #235 ) ;
#171 = DIRECTION ( 'NONE',  ( -4.275831445896959482E-31, -1.000000000000000000, -1.224646799147353454E-16 ) ) ;
#172 = CIRCLE ( 'NONE', #178, 1.274999999999998579 ) ;
#173 = APPROVAL_PERSON_ORGANIZATION ( #175, #284, #62 ) ;
#174 = DIRECTION ( 'NONE',  ( 3.491481338843133355E-15, -1.224646799147353454E-16, 1.000000000000000000 ) ) ;
#175 = PERSON_AND_ORGANIZATION ( #205, #15 ) ;
#176 = COORDINATED_UNIVERSAL_TIME_OFFSET ( 1, 0, .AHEAD. ) ;
#177 = AXIS2_PLACEMENT_3D ( 'NONE', #99, #135, #114 ) ;
#178 = AXIS2_PLACEMENT_3D ( 'NONE', #11, #33, #124 ) ;
#179 = PERSON_AND_ORGANIZATION_ROLE ( 'classification_officer' ) ;
#180 = EDGE_CURVE ( 'NONE', #236, #236, #97, .T. ) ;
#181 = TOROIDAL_SURFACE ( 'NONE', #132, 3.075000000000000622, 2.000000000000000000 ) ;
#182 = DIRECTION ( 'NONE',  ( 0.0000000000000000000, -1.000000000000000000, 0.0000000000000000000 ) ) ;
#183 = CARTESIAN_POINT ( 'NONE',  ( 2.129803616694311221E-13, 8.998558695971062171E-33, 61.00000000000000000 ) ) ;
#184 = ADVANCED_BREP_SHAPE_REPRESENTATION ( '200685', ( #281, #282, #29 ), #274 ) ;
#185 = FACE_OUTER_BOUND ( 'NONE', #24, .T. ) ;
#186 = ADVANCED_FACE ( 'NONE', ( #277 ), #26, .F. ) ;
#187 = FACE_OUTER_BOUND ( 'NONE', #53, .T. ) ;
#188 = EDGE_LOOP ( 'NONE', ( #169 ) ) ;
#189 = ORIENTED_EDGE ( 'NONE', *, *, #121, .T. ) ;
#190 = AXIS2_PLACEMENT_3D ( 'NONE', #143, #174, #288 ) ;
#191 = ORIENTED_EDGE ( 'NONE', *, *, #18, .T. ) ;
#192 = CARTESIAN_POINT ( 'NONE',  ( 3.491481338843133355E-14, -1.224646799147353454E-15, 10.00000000000000000 ) ) ;
#193 = DIRECTION ( 'NONE',  ( 0.0000000000000000000, 1.000000000000000000, 0.0000000000000000000 ) ) ;
#194 = CALENDAR_DATE ( 2021, 2, 12 ) ;
#195 = CC_DESIGN_DATE_AND_TIME_ASSIGNMENT ( #220, #111, ( #119 ) ) ;
#196 = UNCERTAINTY_MEASURE_WITH_UNIT (LENGTH_MEASURE( 1.000000000000000082E-05 ), #5, 'distance_accuracy_value', 'NONE');
#197 = APPROVAL_DATE_TIME ( #198, #157 ) ;
#198 = DATE_AND_TIME ( #86, #266 ) ;
#199 = SHAPE_DEFINITION_REPRESENTATION ( #200, #184 ) ;
#200 = PRODUCT_DEFINITION_SHAPE ( 'NONE', 'NONE',  #81 ) ;
#201 = CARTESIAN_POINT ( 'NONE',  ( 0.0000000000000000000, 0.0000000000000000000, 0.0000000000000000000 ) ) ;
#202 = ORIENTED_EDGE ( 'NONE', *, *, #113, .F. ) ;
#203 = CARTESIAN_POINT ( 'NONE',  ( 3.612429800294233528E-14, -1.267069808696350490E-15, 10.34641016151378246 ) ) ;
#204 = DIRECTION ( 'NONE',  ( 4.275831445896959482E-31, 1.000000000000000000, 1.224646799147353454E-16 ) ) ;
#205 = PERSON ( 'UNSPECIFIED', 'UNSPECIFIED', 'UNSPECIFIED', ('UNSPECIFIED'), ('UNSPECIFIED'), ('UNSPECIFIED') ) ;
#206 = CC_DESIGN_PERSON_AND_ORGANIZATION_ASSIGNMENT ( #88, #222, ( #81 ) ) ;
#207 = DIRECTION ( 'NONE',  ( -3.491481338843133355E-15, 1.224646799147353454E-16, -1.000000000000000000 ) ) ;
#208 = LOCAL_TIME ( 8, 9, 8.000000000000000000, #270 ) ;
#209 = ORIENTED_EDGE ( 'NONE', *, *, #298, .F. ) ;
#210 = FACE_OUTER_BOUND ( 'NONE', #139, .T. ) ;
#211 = CARTESIAN_POINT ( 'NONE',  ( 2.119329172677781757E-13, 1.499999999999995559, 60.69999999999999574 ) ) ;
#212 = DIRECTION ( 'NONE',  ( 0.0000000000000000000, 1.000000000000000000, 0.0000000000000000000 ) ) ;
#213 = CONICAL_SURFACE ( 'NONE', #115, 1.274999999999998579, 0.7853981633974426169 ) ;
#214 = CC_DESIGN_SECURITY_CLASSIFICATION ( #119, ( #98 ) ) ;
#215 = FACE_OUTER_BOUND ( 'NONE', #256, .T. ) ;
#216 = CARTESIAN_POINT ( 'NONE',  ( 7.104220552055900573E-14, 1.105384493975578364, 20.34729635533384240 ) ) ;
#217 = DIRECTION ( 'NONE',  ( 4.275831445896959482E-31, 1.000000000000000000, 1.224646799147353454E-16 ) ) ;
#218 = APPLICATION_PROTOCOL_DEFINITION ( 'international standard', 'config_control_design', 1994, #275 ) ;
#219 = PRODUCT_RELATED_PRODUCT_CATEGORY ( 'detail', '', ( #247 ) ) ;
#220 = DATE_AND_TIME ( #85, #1 ) ;
#221 = APPROVAL_ROLE ( '' ) ;
#222 = PERSON_AND_ORGANIZATION_ROLE ( 'creator' ) ;
#223 = AXIS2_PLACEMENT_3D ( 'NONE', #201, #250, #117 ) ;
#224 = CIRCLE ( 'NONE', #19, 1.500000000000002887 ) ;
#225 = DIRECTION ( 'NONE',  ( 0.0000000000000000000, 1.000000000000000000, 0.0000000000000000000 ) ) ;
#226 = ORIENTED_EDGE ( 'NONE', *, *, #40, .T. ) ;
#227 = ADVANCED_FACE ( 'NONE', ( #137, #140 ), #52, .T. ) ;
#228 = CARTESIAN_POINT ( 'NONE',  ( 3.188216073488255366E-31, -1.118275663097552534E-32, 9.131413758449696798E-17 ) ) ;
#229 = FACE_BOUND ( 'NONE', #46, .T. ) ;
#230 = CLOSED_SHELL ( 'NONE', ( #278, #108, #227, #141, #249, #241, #95, #186 ) ) ;
#231 = DIRECTION ( 'NONE',  ( 0.0000000000000000000, 1.000000000000000000, 0.0000000000000000000 ) ) ;
#232 = APPROVAL_PERSON_ORGANIZATION ( #295, #157, #221 ) ;
#233 = VERTEX_POINT ( 'NONE', #101 ) ;
#234 = FACE_OUTER_BOUND ( 'NONE', #31, .T. ) ;
#235 = APPLICATION_CONTEXT ( 'configuration controlled 3d designs of mechanical parts and assemblies' ) ;
#236 = VERTEX_POINT ( 'NONE', #216 ) ;
#237 = CYLINDRICAL_SURFACE ( 'NONE', #150, 1.274999999999999245 ) ;
#238 = CIRCLE ( 'NONE', #257, 1.025000000000001688 ) ;
#239 = PLANE ( 'NONE',  #91 ) ;
#240 =( NAMED_UNIT ( * ) PLANE_ANGLE_UNIT ( ) SI_UNIT ( $, .RADIAN. ) );
#241 = ADVANCED_FACE ( 'NONE', ( #120, #302 ), #138, .T. ) ;
#242 = EDGE_LOOP ( 'NONE', ( #76 ) ) ;
#243 = MECHANICAL_CONTEXT ( 'NONE', #275, 'mechanical' ) ;
#244 = DATE_AND_TIME ( #42, #248 ) ;
#245 = AXIS2_PLACEMENT_3D ( 'NONE', #47, #207, #162 ) ;
#246 = DATE_TIME_ROLE ( 'creation_date' ) ;
#247 = PRODUCT ( '200685', '200685', '', ( #243 ) ) ;
#248 = LOCAL_TIME ( 8, 9, 8.000000000000000000, #61 ) ;
#249 = ADVANCED_FACE ( 'NONE', ( #255, #210 ), #303, .T. ) ;
#250 = DIRECTION ( 'NONE',  ( -3.491481338843133355E-15, 1.224646799147353454E-16, -1.000000000000000000 ) ) ;
#251 = DIRECTION ( 'NONE',  ( -3.491481338843133355E-15, 1.224646799147353454E-16, -1.000000000000000000 ) ) ;
#252 = LOCAL_TIME ( 8, 9, 8.000000000000000000, #54 ) ;
#253 = DIRECTION ( 'NONE',  ( -3.491481338843133355E-15, 1.224646799147353454E-16, -1.000000000000000000 ) ) ;
#254 = DIRECTION ( 'NONE',  ( 3.491481338843133355E-15, -1.224646799147353454E-16, 1.000000000000000000 ) ) ;
#255 = FACE_BOUND ( 'NONE', #188, .T. ) ;
#256 = EDGE_LOOP ( 'NONE', ( #164 ) ) ;
#257 = AXIS2_PLACEMENT_3D ( 'NONE', #228, #20, #160 ) ;
#258 = PERSON_AND_ORGANIZATION ( #205, #15 ) ;
#259 = ORIENTED_EDGE ( 'NONE', *, *, #113, .T. ) ;
#260 = VERTEX_POINT ( 'NONE', #84 ) ;
#261 = VERTEX_POINT ( 'NONE', #57 ) ;
#262 = CARTESIAN_POINT ( 'NONE',  ( 6.982962677686266711E-14, -2.449293598294706907E-15, 20.00000000000000000 ) ) ;
#263 = ADVANCED_FACE ( 'NONE', ( #45 ), #65, .F. ) ;
#264 = CARTESIAN_POINT ( 'NONE',  ( 7.570943305532645426E-31, 1.025000000000001688, 2.168404344971008868E-16 ) ) ;
#265 = CIRCLE ( 'NONE', #7, 1.499999999999995559 ) ;
#266 = LOCAL_TIME ( 8, 9, 8.000000000000000000, #269 ) ;
#267 = FACE_BOUND ( 'NONE', #290, .T. ) ;
#268 = FACE_OUTER_BOUND ( 'NONE', #21, .T. ) ;
#269 = COORDINATED_UNIVERSAL_TIME_OFFSET ( 1, 0, .AHEAD. ) ;
#270 = COORDINATED_UNIVERSAL_TIME_OFFSET ( 1, 0, .AHEAD. ) ;
#271 = CLOSED_SHELL ( 'NONE', ( #263, #167, #27, #63 ) ) ;
#272 = APPROVAL_STATUS ( 'not_yet_approved' ) ;
#273 = CC_DESIGN_DATE_AND_TIME_ASSIGNMENT ( #296, #246, ( #81 ) ) ;
#274 =( GEOMETRIC_REPRESENTATION_CONTEXT ( 3 ) GLOBAL_UNCERTAINTY_ASSIGNED_CONTEXT ( ( #196 ) ) GLOBAL_UNIT_ASSIGNED_CONTEXT ( ( #5, #240, #122 ) ) REPRESENTATION_CONTEXT ( 'NONE', 'WORKASPACE' ) );
#275 = APPLICATION_CONTEXT ( 'configuration controlled 3d designs of mechanical parts and assemblies' ) ;
#276 = ORIENTED_EDGE ( 'NONE', *, *, #43, .T. ) ;
#277 = FACE_OUTER_BOUND ( 'NONE', #103, .T. ) ;
#278 = ADVANCED_FACE ( 'NONE', ( #268 ), #148, .F. ) ;
#279 = EDGE_LOOP ( 'NONE', ( #276 ) ) ;
#280 = DIRECTION ( 'NONE',  ( -3.491481338843133355E-15, 1.224646799147353454E-16, -1.000000000000000000 ) ) ;
#281 = MANIFOLD_SOLID_BREP ( 'Corps-Déplacer/Copier1[1]', #230 ) ;
#282 = MANIFOLD_SOLID_BREP ( 'Corps-Déplacer/Copier1[2]', #271 ) ;
#283 = FACE_OUTER_BOUND ( 'NONE', #118, .T. ) ;
#284 = APPROVAL ( #272, 'UNSPECIFIED' ) ;
#285 = VERTEX_POINT ( 'NONE', #264 ) ;
#286 = CARTESIAN_POINT ( 'NONE',  ( 0.0000000000000000000, 0.0000000000000000000, 0.0000000000000000000 ) ) ;
#287 = AXIS2_PLACEMENT_3D ( 'NONE', #90, #299, #182 ) ;
#288 = DIRECTION ( 'NONE',  ( -4.275831445896959482E-31, -1.000000000000000000, -1.224646799147353454E-16 ) ) ;
#289 = ORIENTED_EDGE ( 'NONE', *, *, #298, .T. ) ;
#290 = EDGE_LOOP ( 'NONE', ( #289 ) ) ;
#291 = DIRECTION ( 'NONE',  ( 1.000000000000000000, 0.0000000000000000000, 0.0000000000000000000 ) ) ;
#292 = FACE_OUTER_BOUND ( 'NONE', #159, .T. ) ;
#293 = DATE_AND_TIME ( #194, #252 ) ;
#294 = PERSON_AND_ORGANIZATION ( #205, #15 ) ;
#295 = PERSON_AND_ORGANIZATION ( #205, #15 ) ;
#296 = DATE_AND_TIME ( #154, #208 ) ;
#297 = AXIS2_PLACEMENT_3D ( 'NONE', #192, #37, #193 ) ;
#298 = EDGE_CURVE ( 'NONE', #260, #260, #28, .T. ) ;
#299 = DIRECTION ( 'NONE',  ( 3.491481338843133355E-15, -1.224646799147353454E-16, 1.000000000000000000 ) ) ;
#300 = EDGE_LOOP ( 'NONE', ( #259 ) ) ;
#301 = DIRECTION ( 'NONE',  ( -3.491481338843133355E-15, 1.224646799147353454E-16, -1.000000000000000000 ) ) ;
#302 = FACE_OUTER_BOUND ( 'NONE', #300, .T. ) ;
#303 = CONICAL_SURFACE ( 'NONE', #287, 1.499999999999995559, 0.1745329251994262865 ) ;
ENDSEC;
END-ISO-10303-21;
