ISO-10303-21;
HEADER;
FILE_DESCRIPTION (( 'STEP AP203' ),
    '1' );
FILE_NAME ('200684.step',
    '2021-12-02T07:09:08',
    ( '' ),
    ( '' ),
    'SwSTEP 2.0',
    'SolidWorks 2019',
    '' );
FILE_SCHEMA (( 'CONFIG_CONTROL_DESIGN' ));
ENDSEC;

DATA;
#1 = DIRECTION ( 'NONE',  ( -3.491481338843133355E-15, 1.224646799147353454E-16, -1.000000000000000000 ) ) ;
#2 = EDGE_LOOP ( 'NONE', ( #189 ) ) ;
#3 = CARTESIAN_POINT ( 'NONE',  ( 2.119329172677781757E-13, -7.433606070824434221E-15, 60.69999999999999574 ) ) ;
#4 = CALENDAR_DATE ( 2021, 2, 12 ) ;
#5 = CARTESIAN_POINT ( 'NONE',  ( 7.836102670519129938E-14, -2.748534825742751624E-15, 22.44349005489899795 ) ) ;
#6 = AXIS2_PLACEMENT_3D ( 'NONE', #219, #7, #290 ) ;
#7 = DIRECTION ( 'NONE',  ( -3.491481338843133355E-15, 1.224646799147353454E-16, -1.000000000000000000 ) ) ;
#8 = PERSON_AND_ORGANIZATION ( #206, #169 ) ;
#9 = CARTESIAN_POINT ( 'NONE',  ( 6.982962677686266711E-14, -2.602085213965210642E-15, 20.00000000000000000 ) ) ;
#10 = DIRECTION ( 'NONE',  ( 3.491481338843133355E-15, -1.224646799147353454E-16, 1.000000000000000000 ) ) ;
#11 = EDGE_CURVE ( 'NONE', #157, #157, #183, .T. ) ;
#12 = ORIENTED_EDGE ( 'NONE', *, *, #223, .F. ) ;
#13 = DIRECTION ( 'NONE',  ( 0.0000000000000000000, 1.000000000000000000, 0.0000000000000000000 ) ) ;
#14 = APPROVAL_PERSON_ORGANIZATION ( #28, #20, #74 ) ;
#15 = DIRECTION ( 'NONE',  ( -3.491481338843133355E-15, 1.224646799147353454E-16, -1.000000000000000000 ) ) ;
#16 = CIRCLE ( 'NONE', #302, 1.100000000000001865 ) ;
#17 = CARTESIAN_POINT ( 'NONE',  ( 2.129803616694311221E-13, 8.998558695971062171E-33, 61.00000000000000000 ) ) ;
#18 = DIRECTION ( 'NONE',  ( 0.0000000000000000000, 1.000000000000000000, 0.0000000000000000000 ) ) ;
#19 = PRODUCT_DEFINITION_SHAPE ( 'NONE', 'NONE',  #65 ) ;
#20 = APPROVAL ( #142, 'UNSPECIFIED' ) ;
#21 = ORIENTED_EDGE ( 'NONE', *, *, #291, .T. ) ;
#22 = CALENDAR_DATE ( 2021, 2, 12 ) ;
#23 =( NAMED_UNIT ( * ) PLANE_ANGLE_UNIT ( ) SI_UNIT ( $, .RADIAN. ) );
#24 = DATE_AND_TIME ( #284, #303 ) ;
#25 = DIRECTION ( 'NONE',  ( -3.491481338843133355E-15, 1.224646799147353454E-16, -1.000000000000000000 ) ) ;
#26 = ADVANCED_BREP_SHAPE_REPRESENTATION ( '200684', ( #85, #88, #29 ), #293 ) ;
#27 = DIRECTION ( 'NONE',  ( 3.491481338843133355E-15, -1.224646799147353454E-16, 1.000000000000000000 ) ) ;
#28 = PERSON_AND_ORGANIZATION ( #206, #169 ) ;
#29 = AXIS2_PLACEMENT_3D ( 'NONE', #185, #118, #160 ) ;
#30 = PRODUCT_DEFINITION_FORMATION_WITH_SPECIFIED_SOURCE ( 'ANY', '', #280, .NOT_KNOWN. ) ;
#31 = FACE_BOUND ( 'NONE', #167, .T. ) ;
#32 = FACE_OUTER_BOUND ( 'NONE', #57, .T. ) ;
#33 = ORIENTED_EDGE ( 'NONE', *, *, #259, .F. ) ;
#34 = CARTESIAN_POINT ( 'NONE',  ( 0.0000000000000000000, 0.0000000000000000000, 0.0000000000000000000 ) ) ;
#35 = ORIENTED_EDGE ( 'NONE', *, *, #131, .T. ) ;
#36 = FACE_OUTER_BOUND ( 'NONE', #59, .T. ) ;
#37 = CONICAL_SURFACE ( 'NONE', #44, 1.200000000000002842, 0.7853981633974453924 ) ;
#38 = CC_DESIGN_APPROVAL ( #124, ( #83 ) ) ;
#39 = APPROVAL_STATUS ( 'not_yet_approved' ) ;
#40 = APPLICATION_CONTEXT ( 'configuration controlled 3d designs of mechanical parts and assemblies' ) ;
#41 = CARTESIAN_POINT ( 'NONE',  ( 2.129803616694311221E-13, -7.470345474798856659E-15, 61.00000000000000000 ) ) ;
#42 = DIRECTION ( 'NONE',  ( 0.0000000000000000000, 1.000000000000000000, 0.0000000000000000000 ) ) ;
#43 = ADVANCED_FACE ( 'NONE', ( #231 ), #66, .F. ) ;
#44 = AXIS2_PLACEMENT_3D ( 'NONE', #269, #200, #13 ) ;
#45 = CARTESIAN_POINT ( 'NONE',  ( 3.612429800294232897E-14, 1.099999999999999423, 10.34641016151378068 ) ) ;
#46 = PERSON_AND_ORGANIZATION_ROLE ( 'classification_officer' ) ;
#47 = EDGE_LOOP ( 'NONE', ( #148 ) ) ;
#48 = VERTEX_POINT ( 'NONE', #140 ) ;
#49 = DIRECTION ( 'NONE',  ( -3.491481338843133355E-15, 1.224646799147353454E-16, -1.000000000000000000 ) ) ;
#50 = CALENDAR_DATE ( 2021, 2, 12 ) ;
#51 = APPROVAL_DATE_TIME ( #258, #124 ) ;
#52 = CARTESIAN_POINT ( 'NONE',  ( -3.520756827127462254E-32, 1.234915258159870564E-33, -1.008384833096094586E-17 ) ) ;
#53 = FACE_OUTER_BOUND ( 'NONE', #116, .T. ) ;
#54 = AXIS2_PLACEMENT_3D ( 'NONE', #146, #60, #104 ) ;
#55 = LOCAL_TIME ( 8, 9, 8.000000000000000000, #234 ) ;
#56 = DIRECTION ( 'NONE',  ( 0.0000000000000000000, -1.000000000000000000, 0.0000000000000000000 ) ) ;
#57 = EDGE_LOOP ( 'NONE', ( #165 ) ) ;
#58 = DIRECTION ( 'NONE',  ( -4.275831445896959482E-31, -1.000000000000000000, -1.224646799147353454E-16 ) ) ;
#59 = EDGE_LOOP ( 'NONE', ( #294 ) ) ;
#60 = DIRECTION ( 'NONE',  ( -3.491481338843133355E-15, 1.224646799147353454E-16, -1.000000000000000000 ) ) ;
#61 = ADVANCED_FACE ( 'NONE', ( #195, #285 ), #286, .T. ) ;
#62 = CIRCLE ( 'NONE', #100, 1.050000000000001821 ) ;
#63 = ORIENTED_EDGE ( 'NONE', *, *, #223, .T. ) ;
#64 = CC_DESIGN_PERSON_AND_ORGANIZATION_ASSIGNMENT ( #244, #260, ( #65 ) ) ;
#65 = PRODUCT_DEFINITION ( 'UNKNOWN', '', #30, #162 ) ;
#66 = PLANE ( 'NONE',  #287 ) ;
#67 = FACE_BOUND ( 'NONE', #143, .T. ) ;
#68 = CONICAL_SURFACE ( 'NONE', #133, 1.499999999999998002, 0.1745329251994259812 ) ;
#69 = LOCAL_TIME ( 8, 9, 8.000000000000000000, #186 ) ;
#70 = CARTESIAN_POINT ( 'NONE',  ( 6.982962677686266711E-14, 1.099999999999999423, 20.00000000000000000 ) ) ;
#71 = CARTESIAN_POINT ( 'NONE',  ( 7.104220552055901835E-14, 1.130384493975580495, 20.34729635533384595 ) ) ;
#72 = PERSON_AND_ORGANIZATION ( #206, #169 ) ;
#73 = AXIS2_PLACEMENT_3D ( 'NONE', #205, #1, #18 ) ;
#74 = APPROVAL_ROLE ( '' ) ;
#75 = FACE_OUTER_BOUND ( 'NONE', #194, .T. ) ;
#76 = PERSON_AND_ORGANIZATION ( #206, #169 ) ;
#77 = PERSON_AND_ORGANIZATION ( #206, #169 ) ;
#78 = FACE_OUTER_BOUND ( 'NONE', #247, .T. ) ;
#79 = APPROVAL ( #39, 'UNSPECIFIED' ) ;
#80 = APPLICATION_CONTEXT ( 'configuration controlled 3d designs of mechanical parts and assemblies' ) ;
#81 = CARTESIAN_POINT ( 'NONE',  ( 8.728703347107833388E-16, -3.061616997868383634E-17, 0.2500000000000000000 ) ) ;
#82 = AXIS2_PLACEMENT_3D ( 'NONE', #81, #130, #227 ) ;
#83 = SECURITY_CLASSIFICATION ( '', '', #163 ) ;
#84 = DIRECTION ( 'NONE',  ( 4.275831445896959482E-31, 1.000000000000000000, 1.224646799147353454E-16 ) ) ;
#85 = MANIFOLD_SOLID_BREP ( 'Corps-Déplacer/Copier1[1]', #168 ) ;
#86 = CC_DESIGN_DATE_AND_TIME_ASSIGNMENT ( #190, #182, ( #65 ) ) ;
#87 = CARTESIAN_POINT ( 'NONE',  ( 3.491481338843133355E-14, -1.224646799147353454E-15, 10.00000000000000000 ) ) ;
#88 = MANIFOLD_SOLID_BREP ( 'Corps-Déplacer/Copier1[2]', #203 ) ;
#89 = FACE_BOUND ( 'NONE', #2, .T. ) ;
#90 = COORDINATED_UNIVERSAL_TIME_OFFSET ( 1, 0, .AHEAD. ) ;
#91 = AXIS2_PLACEMENT_3D ( 'NONE', #52, #225, #58 ) ;
#92 = ADVANCED_FACE ( 'NONE', ( #78, #170 ), #210, .F. ) ;
#93 = ORIENTED_EDGE ( 'NONE', *, *, #202, .F. ) ;
#94 = CARTESIAN_POINT ( 'NONE',  ( 3.785471652766323151E-31, 1.050000000000001821, 1.084202172485504434E-16 ) ) ;
#95 = FACE_OUTER_BOUND ( 'NONE', #207, .T. ) ;
#96 = AXIS2_PLACEMENT_3D ( 'NONE', #34, #245, #84 ) ;
#97 = ORIENTED_EDGE ( 'NONE', *, *, #202, .T. ) ;
#98 = DIRECTION ( 'NONE',  ( -3.491481338843133355E-15, 1.224646799147353454E-16, -1.000000000000000000 ) ) ;
#99 = DIRECTION ( 'NONE',  ( -3.491481338843133355E-15, 1.224646799147353454E-16, -1.000000000000000000 ) ) ;
#100 = AXIS2_PLACEMENT_3D ( 'NONE', #257, #233, #181 ) ;
#101 = ADVANCED_FACE ( 'NONE', ( #193, #264 ), #68, .T. ) ;
#102 = FACE_OUTER_BOUND ( 'NONE', #249, .T. ) ;
#103 = EDGE_LOOP ( 'NONE', ( #110 ) ) ;
#104 = DIRECTION ( 'NONE',  ( 4.275831445896959482E-31, 1.000000000000000000, 1.224646799147353454E-16 ) ) ;
#105 = AXIS2_PLACEMENT_3D ( 'NONE', #41, #137, #138 ) ;
#106 = DIRECTION ( 'NONE',  ( 3.491481338843133355E-15, -1.224646799147353454E-16, 1.000000000000000000 ) ) ;
#107 = EDGE_LOOP ( 'NONE', ( #151 ) ) ;
#108 = CARTESIAN_POINT ( 'NONE',  ( 3.612429800294232897E-14, -1.267069808696350292E-15, 10.34641016151378068 ) ) ;
#109 = DATE_AND_TIME ( #175, #275 ) ;
#110 = ORIENTED_EDGE ( 'NONE', *, *, #291, .F. ) ;
#111 = AXIS2_PLACEMENT_3D ( 'NONE', #215, #15, #42 ) ;
#112 =( LENGTH_UNIT ( ) NAMED_UNIT ( * ) SI_UNIT ( .MILLI., .METRE. ) );
#113 = DIRECTION ( 'NONE',  ( -3.491481338843133355E-15, 1.224646799147353454E-16, -1.000000000000000000 ) ) ;
#114 = VERTEX_POINT ( 'NONE', #208 ) ;
#115 = DIRECTION ( 'NONE',  ( 0.0000000000000000000, 1.000000000000000000, 0.0000000000000000000 ) ) ;
#116 = EDGE_LOOP ( 'NONE', ( #256 ) ) ;
#117 = PRODUCT_RELATED_PRODUCT_CATEGORY ( 'detail', '', ( #280 ) ) ;
#118 = DIRECTION ( 'NONE',  ( 0.0000000000000000000, 0.0000000000000000000, 1.000000000000000000 ) ) ;
#119 = AXIS2_PLACEMENT_3D ( 'NONE', #144, #27, #127 ) ;
#120 = APPROVAL_PERSON_ORGANIZATION ( #72, #124, #216 ) ;
#121 = APPROVAL_DATE_TIME ( #278, #20 ) ;
#122 = DATE_TIME_ROLE ( 'classification_date' ) ;
#123 = DIRECTION ( 'NONE',  ( 0.0000000000000000000, 1.000000000000000000, 0.0000000000000000000 ) ) ;
#124 = APPROVAL ( #158, 'UNSPECIFIED' ) ;
#125 = CYLINDRICAL_SURFACE ( 'NONE', #6, 1.500000000000000444 ) ;
#126 = PERSON_AND_ORGANIZATION_ROLE ( 'design_supplier' ) ;
#127 = DIRECTION ( 'NONE',  ( -4.444453717816699739E-31, -1.000000000000000000, -1.251002506714044033E-16 ) ) ;
#128 = ORIENTED_EDGE ( 'NONE', *, *, #300, .F. ) ;
#129 = DIRECTION ( 'NONE',  ( 0.0000000000000000000, 1.000000000000000000, 0.0000000000000000000 ) ) ;
#130 = DIRECTION ( 'NONE',  ( -3.491481338843133355E-15, 1.224646799147353454E-16, -1.000000000000000000 ) ) ;
#131 = EDGE_CURVE ( 'NONE', #277, #277, #196, .T. ) ;
#132 = DIRECTION ( 'NONE',  ( 3.491481338843133355E-15, -1.224646799147353454E-16, 1.000000000000000000 ) ) ;
#133 = AXIS2_PLACEMENT_3D ( 'NONE', #262, #10, #56 ) ;
#134 = APPROVAL_PERSON_ORGANIZATION ( #76, #79, #295 ) ;
#135 = ADVANCED_FACE ( 'NONE', ( #31, #197 ), #153, .T. ) ;
#136 = CARTESIAN_POINT ( 'NONE',  ( 3.491481338843133355E-14, 1.299999999999999600, 10.00000000000000000 ) ) ;
#137 = DIRECTION ( 'NONE',  ( -3.491481338843133355E-15, 1.224646799147353454E-16, -1.000000000000000000 ) ) ;
#138 = DIRECTION ( 'NONE',  ( 0.0000000000000000000, 1.000000000000000000, 0.0000000000000000000 ) ) ;
#139 = VERTEX_POINT ( 'NONE', #136 ) ;
#140 = CARTESIAN_POINT ( 'NONE',  ( 7.836102670519129938E-14, 1.499999999999995337, 22.44349005489899795 ) ) ;
#141 = CIRCLE ( 'NONE', #177, 1.499999999999998002 ) ;
#142 = APPROVAL_STATUS ( 'not_yet_approved' ) ;
#143 = EDGE_LOOP ( 'NONE', ( #147 ) ) ;
#144 = CARTESIAN_POINT ( 'NONE',  ( 8.728703347107833388E-16, -3.061616997868383634E-17, 0.2500000000000000000 ) ) ;
#145 = DIRECTION ( 'NONE',  ( -3.491481338843133355E-15, 1.224646799147353454E-16, -1.000000000000000000 ) ) ;
#146 = CARTESIAN_POINT ( 'NONE',  ( 0.0000000000000000000, 0.0000000000000000000, 0.0000000000000000000 ) ) ;
#147 = ORIENTED_EDGE ( 'NONE', *, *, #259, .T. ) ;
#148 = ORIENTED_EDGE ( 'NONE', *, *, #159, .T. ) ;
#149 = CARTESIAN_POINT ( 'NONE',  ( 3.491481338843133355E-14, 9.748438587302064872E-33, 10.00000000000000000 ) ) ;
#150 = ORIENTED_EDGE ( 'NONE', *, *, #131, .F. ) ;
#151 = ORIENTED_EDGE ( 'NONE', *, *, #271, .T. ) ;
#152 = CC_DESIGN_DATE_AND_TIME_ASSIGNMENT ( #24, #122, ( #83 ) ) ;
#153 = CONICAL_SURFACE ( 'NONE', #119, 1.299999999999999600, 0.7853981633974435050 ) ;
#154 = VERTEX_POINT ( 'NONE', #301 ) ;
#155 = CC_DESIGN_PERSON_AND_ORGANIZATION_ASSIGNMENT ( #77, #126, ( #30 ) ) ;
#156 = CARTESIAN_POINT ( 'NONE',  ( 2.129803616694311221E-13, 1.199999999999995515, 61.00000000000000000 ) ) ;
#157 = VERTEX_POINT ( 'NONE', #156 ) ;
#158 = APPROVAL_STATUS ( 'not_yet_approved' ) ;
#159 = EDGE_CURVE ( 'NONE', #114, #114, #246, .T. ) ;
#160 = DIRECTION ( 'NONE',  ( 1.000000000000000000, 0.0000000000000000000, 0.0000000000000000000 ) ) ;
#161 = AXIS2_PLACEMENT_3D ( 'NONE', #265, #106, #224 ) ;
#162 = DESIGN_CONTEXT ( 'detailed design', #80, 'design' ) ;
#163 = SECURITY_CLASSIFICATION_LEVEL ( 'unclassified' ) ;
#164 = DIRECTION ( 'NONE',  ( 0.0000000000000000000, 1.000000000000000000, 0.0000000000000000000 ) ) ;
#165 = ORIENTED_EDGE ( 'NONE', *, *, #159, .F. ) ;
#166 = FACE_OUTER_BOUND ( 'NONE', #242, .T. ) ;
#167 = EDGE_LOOP ( 'NONE', ( #128 ) ) ;
#168 = CLOSED_SHELL ( 'NONE', ( #176, #263, #61, #92, #101, #236, #250, #43 ) ) ;
#169 = ORGANIZATION ( 'UNSPECIFIED', 'UNSPECIFIED', '' ) ;
#170 = FACE_OUTER_BOUND ( 'NONE', #107, .T. ) ;
#171 = PLANE ( 'NONE',  #91 ) ;
#172 = PLANE ( 'NONE',  #282 ) ;
#173 = ORIENTED_EDGE ( 'NONE', *, *, #271, .F. ) ;
#174 = CONICAL_SURFACE ( 'NONE', #73, 1.100000000000000755, 0.5235987755982934866 ) ;
#175 = CALENDAR_DATE ( 2021, 2, 12 ) ;
#176 = ADVANCED_FACE ( 'NONE', ( #166 ), #266, .F. ) ;
#177 = AXIS2_PLACEMENT_3D ( 'NONE', #5, #99, #191 ) ;
#178 = ORIENTED_EDGE ( 'NONE', *, *, #300, .T. ) ;
#179 = VERTEX_POINT ( 'NONE', #94 ) ;
#180 = ADVANCED_FACE ( 'NONE', ( #102 ), #171, .F. ) ;
#181 = DIRECTION ( 'NONE',  ( 4.275831445896959482E-31, 1.000000000000000000, 1.224646799147353454E-16 ) ) ;
#182 = DATE_TIME_ROLE ( 'creation_date' ) ;
#183 = CIRCLE ( 'NONE', #105, 1.200000000000002842 ) ;
#184 = CC_DESIGN_APPROVAL ( #20, ( #30 ) ) ;
#185 = CARTESIAN_POINT ( 'NONE',  ( 0.0000000000000000000, 0.0000000000000000000, 0.0000000000000000000 ) ) ;
#186 = COORDINATED_UNIVERSAL_TIME_OFFSET ( 1, 0, .AHEAD. ) ;
#187 = VERTEX_POINT ( 'NONE', #70 ) ;
#188 = ADVANCED_FACE ( 'NONE', ( #32, #53 ), #268, .T. ) ;
#189 = ORIENTED_EDGE ( 'NONE', *, *, #11, .T. ) ;
#190 = DATE_AND_TIME ( #50, #69 ) ;
#191 = DIRECTION ( 'NONE',  ( 0.0000000000000000000, 1.000000000000000000, 0.0000000000000000000 ) ) ;
#192 = AXIS2_PLACEMENT_3D ( 'NONE', #3, #98, #115 ) ;
#193 = FACE_BOUND ( 'NONE', #251, .T. ) ;
#194 = EDGE_LOOP ( 'NONE', ( #21 ) ) ;
#195 = FACE_OUTER_BOUND ( 'NONE', #198, .T. ) ;
#196 = CIRCLE ( 'NONE', #235, 1.300000000000000711 ) ;
#197 = FACE_OUTER_BOUND ( 'NONE', #47, .T. ) ;
#198 = EDGE_LOOP ( 'NONE', ( #33 ) ) ;
#199 = EDGE_CURVE ( 'NONE', #139, #139, #270, .T. ) ;
#200 = DIRECTION ( 'NONE',  ( -3.491481338843133355E-15, 1.224646799147353454E-16, -1.000000000000000000 ) ) ;
#201 = PERSON_AND_ORGANIZATION_ROLE ( 'design_owner' ) ;
#202 = EDGE_CURVE ( 'NONE', #187, #187, #16, .T. ) ;
#203 = CLOSED_SHELL ( 'NONE', ( #180, #135, #188, #243 ) ) ;
#204 = EDGE_LOOP ( 'NONE', ( #97 ) ) ;
#205 = CARTESIAN_POINT ( 'NONE',  ( 3.612429800294232897E-14, -1.267069808696350292E-15, 10.34641016151378068 ) ) ;
#206 = PERSON ( 'UNSPECIFIED', 'UNSPECIFIED', 'UNSPECIFIED', ('UNSPECIFIED'), ('UNSPECIFIED'), ('UNSPECIFIED') ) ;
#207 = EDGE_LOOP ( 'NONE', ( #150 ) ) ;
#208 = CARTESIAN_POINT ( 'NONE',  ( 8.728703347107839305E-16, 1.299999999999999600, 0.2500000000000001665 ) ) ;
#209 = DIRECTION ( 'NONE',  ( 0.0000000000000000000, 1.000000000000000000, 0.0000000000000000000 ) ) ;
#210 = TOROIDAL_SURFACE ( 'NONE', #220, 3.100000000000001865, 2.000000000000000444 ) ;
#211 = EDGE_LOOP ( 'NONE', ( #12 ) ) ;
#212 = CC_DESIGN_APPROVAL ( #79, ( #65 ) ) ;
#213 = APPLICATION_PROTOCOL_DEFINITION ( 'international standard', 'config_control_design', 1994, #40 ) ;
#214 = PERSON_AND_ORGANIZATION_ROLE ( 'creator' ) ;
#215 = CARTESIAN_POINT ( 'NONE',  ( 7.104220552055901835E-14, -2.491825135286220620E-15, 20.34729635533384595 ) ) ;
#216 = APPROVAL_ROLE ( '' ) ;
#217 = DIRECTION ( 'NONE',  ( -3.491481338843133355E-15, 1.224646799147353454E-16, -1.000000000000000000 ) ) ;
#218 = COORDINATED_UNIVERSAL_TIME_OFFSET ( 1, 0, .AHEAD. ) ;
#219 = CARTESIAN_POINT ( 'NONE',  ( 0.0000000000000000000, 0.0000000000000000000, 0.0000000000000000000 ) ) ;
#220 = AXIS2_PLACEMENT_3D ( 'NONE', #9, #289, #241 ) ;
#221 = UNCERTAINTY_MEASURE_WITH_UNIT (LENGTH_MEASURE( 1.000000000000000082E-05 ), #112, 'distance_accuracy_value', 'NONE');
#222 = COORDINATED_UNIVERSAL_TIME_OFFSET ( 1, 0, .AHEAD. ) ;
#223 = EDGE_CURVE ( 'NONE', #48, #48, #141, .T. ) ;
#224 = DIRECTION ( 'NONE',  ( -4.275831445896959482E-31, -1.000000000000000000, -1.224646799147353454E-16 ) ) ;
#225 = DIRECTION ( 'NONE',  ( 3.491481338843133355E-15, -1.224646799147353454E-16, 1.000000000000000000 ) ) ;
#226 = EDGE_LOOP ( 'NONE', ( #63 ) ) ;
#227 = DIRECTION ( 'NONE',  ( 4.444453717816699739E-31, 1.000000000000000000, 1.251002506714044033E-16 ) ) ;
#228 = CIRCLE ( 'NONE', #296, 1.100000000000000755 ) ;
#229 = FACE_OUTER_BOUND ( 'NONE', #103, .T. ) ;
#230 = AXIS2_PLACEMENT_3D ( 'NONE', #248, #217, #129 ) ;
#231 = FACE_OUTER_BOUND ( 'NONE', #279, .T. ) ;
#232 =( NAMED_UNIT ( * ) SI_UNIT ( $, .STERADIAN. ) SOLID_ANGLE_UNIT ( ) );
#233 = DIRECTION ( 'NONE',  ( -3.491481338843133355E-15, 1.224646799147353454E-16, -1.000000000000000000 ) ) ;
#234 = COORDINATED_UNIVERSAL_TIME_OFFSET ( 1, 0, .AHEAD. ) ;
#235 = AXIS2_PLACEMENT_3D ( 'NONE', #87, #145, #164 ) ;
#236 = ADVANCED_FACE ( 'NONE', ( #283, #75 ), #125, .T. ) ;
#237 = PERSON_AND_ORGANIZATION ( #206, #169 ) ;
#238 = CARTESIAN_POINT ( 'NONE',  ( 6.982962677686266711E-14, -2.449293598294706907E-15, 20.00000000000000000 ) ) ;
#239 = APPLICATION_PROTOCOL_DEFINITION ( 'international standard', 'config_control_design', 1994, #80 ) ;
#240 = APPROVAL_DATE_TIME ( #109, #79 ) ;
#241 = DIRECTION ( 'NONE',  ( 4.275831445896960358E-31, 1.000000000000000000, 1.224646799147353454E-16 ) ) ;
#242 = EDGE_LOOP ( 'NONE', ( #35 ) ) ;
#243 = ADVANCED_FACE ( 'NONE', ( #36 ), #172, .T. ) ;
#244 = PERSON_AND_ORGANIZATION ( #206, #169 ) ;
#245 = DIRECTION ( 'NONE',  ( -3.491481338843133355E-15, 1.224646799147353454E-16, -1.000000000000000000 ) ) ;
#246 = CIRCLE ( 'NONE', #82, 1.299999999999999600 ) ;
#247 = EDGE_LOOP ( 'NONE', ( #93 ) ) ;
#248 = CARTESIAN_POINT ( 'NONE',  ( 3.491481338843133355E-14, -1.224646799147353454E-15, 10.00000000000000000 ) ) ;
#249 = EDGE_LOOP ( 'NONE', ( #178 ) ) ;
#250 = ADVANCED_FACE ( 'NONE', ( #229, #89 ), #37, .T. ) ;
#251 = EDGE_LOOP ( 'NONE', ( #173 ) ) ;
#252 = DIRECTION ( 'NONE',  ( -4.275831445896959482E-31, -1.000000000000000000, -1.224646799147353454E-16 ) ) ;
#253 = CIRCLE ( 'NONE', #111, 1.130384493975582716 ) ;
#254 = CC_DESIGN_PERSON_AND_ORGANIZATION_ASSIGNMENT ( #261, #201, ( #280 ) ) ;
#255 = CC_DESIGN_SECURITY_CLASSIFICATION ( #83, ( #30 ) ) ;
#256 = ORIENTED_EDGE ( 'NONE', *, *, #199, .T. ) ;
#257 = CARTESIAN_POINT ( 'NONE',  ( -7.041513654254924508E-32, 2.469830516319741128E-33, -2.016769666192189172E-17 ) ) ;
#258 = DATE_AND_TIME ( #4, #288 ) ;
#259 = EDGE_CURVE ( 'NONE', #272, #272, #228, .T. ) ;
#260 = PERSON_AND_ORGANIZATION_ROLE ( 'creator' ) ;
#261 = PERSON_AND_ORGANIZATION ( #206, #169 ) ;
#262 = CARTESIAN_POINT ( 'NONE',  ( 7.836102670519129938E-14, -2.748534825742751624E-15, 22.44349005489899795 ) ) ;
#263 = ADVANCED_FACE ( 'NONE', ( #95, #67 ), #174, .T. ) ;
#264 = FACE_OUTER_BOUND ( 'NONE', #226, .T. ) ;
#265 = CARTESIAN_POINT ( 'NONE',  ( 3.491481338843133355E-14, 9.748438587302064872E-33, 10.00000000000000000 ) ) ;
#266 = PLANE ( 'NONE',  #161 ) ;
#267 = ORIENTED_EDGE ( 'NONE', *, *, #11, .F. ) ;
#268 = CYLINDRICAL_SURFACE ( 'NONE', #54, 1.300000000000000266 ) ;
#269 = CARTESIAN_POINT ( 'NONE',  ( 2.129803616694311221E-13, -7.470345474798856659E-15, 61.00000000000000000 ) ) ;
#270 = CIRCLE ( 'NONE', #230, 1.300000000000000711 ) ;
#271 = EDGE_CURVE ( 'NONE', #299, #299, #253, .T. ) ;
#272 = VERTEX_POINT ( 'NONE', #45 ) ;
#273 = MECHANICAL_CONTEXT ( 'NONE', #40, 'mechanical' ) ;
#274 = SHAPE_DEFINITION_REPRESENTATION ( #19, #26 ) ;
#275 = LOCAL_TIME ( 8, 9, 8.000000000000000000, #90 ) ;
#276 = CC_DESIGN_PERSON_AND_ORGANIZATION_ASSIGNMENT ( #237, #214, ( #30 ) ) ;
#277 = VERTEX_POINT ( 'NONE', #297 ) ;
#278 = DATE_AND_TIME ( #22, #55 ) ;
#279 = EDGE_LOOP ( 'NONE', ( #267 ) ) ;
#280 = PRODUCT ( '200684', '200684', '', ( #273 ) ) ;
#281 = CC_DESIGN_PERSON_AND_ORGANIZATION_ASSIGNMENT ( #8, #46, ( #83 ) ) ;
#282 = AXIS2_PLACEMENT_3D ( 'NONE', #149, #132, #252 ) ;
#283 = FACE_OUTER_BOUND ( 'NONE', #211, .T. ) ;
#284 = CALENDAR_DATE ( 2021, 2, 12 ) ;
#285 = FACE_OUTER_BOUND ( 'NONE', #204, .T. ) ;
#286 = CYLINDRICAL_SURFACE ( 'NONE', #96, 1.100000000000001199 ) ;
#287 = AXIS2_PLACEMENT_3D ( 'NONE', #17, #113, #298 ) ;
#288 = LOCAL_TIME ( 8, 9, 8.000000000000000000, #218 ) ;
#289 = DIRECTION ( 'NONE',  ( -3.491481338843133355E-15, 1.224646799147353454E-16, -1.000000000000000000 ) ) ;
#290 = DIRECTION ( 'NONE',  ( 4.275831445896959482E-31, 1.000000000000000000, 1.224646799147353700E-16 ) ) ;
#291 = EDGE_CURVE ( 'NONE', #154, #154, #292, .T. ) ;
#292 = CIRCLE ( 'NONE', #192, 1.500000000000002887 ) ;
#293 =( GEOMETRIC_REPRESENTATION_CONTEXT ( 3 ) GLOBAL_UNCERTAINTY_ASSIGNED_CONTEXT ( ( #221 ) ) GLOBAL_UNIT_ASSIGNED_CONTEXT ( ( #112, #23, #232 ) ) REPRESENTATION_CONTEXT ( 'NONE', 'WORKASPACE' ) );
#294 = ORIENTED_EDGE ( 'NONE', *, *, #199, .F. ) ;
#295 = APPROVAL_ROLE ( '' ) ;
#296 = AXIS2_PLACEMENT_3D ( 'NONE', #108, #49, #209 ) ;
#297 = CARTESIAN_POINT ( 'NONE',  ( 3.491481338843133355E-14, 1.299999999999999600, 10.00000000000000000 ) ) ;
#298 = DIRECTION ( 'NONE',  ( 4.275831445896959482E-31, 1.000000000000000000, 1.224646799147353454E-16 ) ) ;
#299 = VERTEX_POINT ( 'NONE', #71 ) ;
#300 = EDGE_CURVE ( 'NONE', #179, #179, #62, .T. ) ;
#301 = CARTESIAN_POINT ( 'NONE',  ( 2.119329172677781757E-13, 1.499999999999995559, 60.69999999999999574 ) ) ;
#302 = AXIS2_PLACEMENT_3D ( 'NONE', #238, #25, #123 ) ;
#303 = LOCAL_TIME ( 8, 9, 8.000000000000000000, #222 ) ;
ENDSEC;
END-ISO-10303-21;
