ISO-10303-21;
HEADER;
FILE_DESCRIPTION (( 'STEP AP203' ),
    '1' );
FILE_NAME ('200683.step',
    '2021-12-02T07:11:28',
    ( '' ),
    ( '' ),
    'SwSTEP 2.0',
    'SolidWorks 2019',
    '' );
FILE_SCHEMA (( 'CONFIG_CONTROL_DESIGN' ));
ENDSEC;

DATA;
#1 = DIRECTION ( 'NONE',  ( 0.0000000000000000000, 1.000000000000000000, 0.0000000000000000000 ) ) ;
#2 = APPROVAL ( #11, 'UNSPECIFIED' ) ;
#3 = CARTESIAN_POINT ( 'NONE',  ( 2.129803616694311221E-13, -7.470345474798856659E-15, 61.00000000000000000 ) ) ;
#4 = DIRECTION ( 'NONE',  ( -3.491481338843133355E-15, 1.224646799147353454E-16, -1.000000000000000000 ) ) ;
#5 = AXIS2_PLACEMENT_3D ( 'NONE', #256, #48, #19 ) ;
#6 = AXIS2_PLACEMENT_3D ( 'NONE', #98, #12, #192 ) ;
#7 = EDGE_LOOP ( 'NONE', ( #261 ) ) ;
#8 = ORIENTED_EDGE ( 'NONE', *, *, #85, .T. ) ;
#9 = ORIENTED_EDGE ( 'NONE', *, *, #235, .F. ) ;
#10 = EDGE_LOOP ( 'NONE', ( #101 ) ) ;
#11 = APPROVAL_STATUS ( 'not_yet_approved' ) ;
#12 = DIRECTION ( 'NONE',  ( 3.491481338843133355E-15, -1.224646799147353454E-16, 1.000000000000000000 ) ) ;
#13 = COORDINATED_UNIVERSAL_TIME_OFFSET ( 1, 0, .AHEAD. ) ;
#14 = LOCAL_TIME ( 8, 11, 28.00000000000000000, #216 ) ;
#15 = APPROVAL_DATE_TIME ( #106, #248 ) ;
#16 = CC_DESIGN_DATE_AND_TIME_ASSIGNMENT ( #295, #58, ( #162 ) ) ;
#17 = CARTESIAN_POINT ( 'NONE',  ( 8.728703347107833388E-16, 1.324999999999998623, 0.2500000000000000000 ) ) ;
#18 = DIRECTION ( 'NONE',  ( -3.491481338843133355E-15, 1.224646799147353454E-16, -1.000000000000000000 ) ) ;
#19 = DIRECTION ( 'NONE',  ( 4.275831445896959482E-31, 1.000000000000000000, 1.224646799147353454E-16 ) ) ;
#20 = CIRCLE ( 'NONE', #94, 1.499999999999996003 ) ;
#21 = CARTESIAN_POINT ( 'NONE',  ( 3.612429800294234159E-14, 1.124999999999996891, 10.34641016151378423 ) ) ;
#22 = DIRECTION ( 'NONE',  ( 3.491481338843133355E-15, -1.224646799147353454E-16, 1.000000000000000000 ) ) ;
#23 = FACE_OUTER_BOUND ( 'NONE', #51, .T. ) ;
#24 = ADVANCED_FACE ( 'NONE', ( #121 ), #124, .F. ) ;
#25 = DIRECTION ( 'NONE',  ( 0.0000000000000000000, 1.000000000000000000, 0.0000000000000000000 ) ) ;
#26 =( GEOMETRIC_REPRESENTATION_CONTEXT ( 3 ) GLOBAL_UNCERTAINTY_ASSIGNED_CONTEXT ( ( #283 ) ) GLOBAL_UNIT_ASSIGNED_CONTEXT ( ( #42, #277, #197 ) ) REPRESENTATION_CONTEXT ( 'NONE', 'WORKASPACE' ) );
#27 = DIRECTION ( 'NONE',  ( 4.275831445896959482E-31, 1.000000000000000000, 1.224646799147353454E-16 ) ) ;
#28 = AXIS2_PLACEMENT_3D ( 'NONE', #45, #230, #116 ) ;
#29 = EDGE_LOOP ( 'NONE', ( #263 ) ) ;
#30 = FACE_BOUND ( 'NONE', #234, .T. ) ;
#31 = PERSON_AND_ORGANIZATION ( #236, #260 ) ;
#32 = ORIENTED_EDGE ( 'NONE', *, *, #107, .T. ) ;
#33 = MECHANICAL_CONTEXT ( 'NONE', #128, 'mechanical' ) ;
#34 = CONICAL_SURFACE ( 'NONE', #60, 1.200000000000002842, 0.7853981633974453924 ) ;
#35 = PERSON_AND_ORGANIZATION ( #236, #260 ) ;
#36 = EDGE_CURVE ( 'NONE', #254, #254, #113, .T. ) ;
#37 = LOCAL_TIME ( 8, 11, 28.00000000000000000, #267 ) ;
#38 = APPROVAL_DATE_TIME ( #246, #2 ) ;
#39 = PERSON_AND_ORGANIZATION_ROLE ( 'creator' ) ;
#40 = CARTESIAN_POINT ( 'NONE',  ( 3.491481338843133355E-14, 1.324999999999998623, 10.00000000000000000 ) ) ;
#41 = VERTEX_POINT ( 'NONE', #224 ) ;
#42 =( LENGTH_UNIT ( ) NAMED_UNIT ( * ) SI_UNIT ( .MILLI., .METRE. ) );
#43 = DIRECTION ( 'NONE',  ( -3.491481338843133355E-15, 1.224646799147353454E-16, -1.000000000000000000 ) ) ;
#44 = FACE_OUTER_BOUND ( 'NONE', #95, .T. ) ;
#45 = CARTESIAN_POINT ( 'NONE',  ( -4.055235757864570804E-32, 1.422385230992598831E-33, -1.161465682989510625E-17 ) ) ;
#46 = CIRCLE ( 'NONE', #138, 1.124999999999998224 ) ;
#47 = EDGE_CURVE ( 'NONE', #86, #86, #228, .T. ) ;
#48 = DIRECTION ( 'NONE',  ( -3.491481338843133355E-15, 1.224646799147353454E-16, -1.000000000000000000 ) ) ;
#49 = DIRECTION ( 'NONE',  ( -4.275831445896959482E-31, -1.000000000000000000, -1.224646799147353454E-16 ) ) ;
#50 = EDGE_LOOP ( 'NONE', ( #123 ) ) ;
#51 = EDGE_LOOP ( 'NONE', ( #145 ) ) ;
#52 = DIRECTION ( 'NONE',  ( -3.491481338843133355E-15, 1.224646799147353454E-16, -1.000000000000000000 ) ) ;
#53 = ADVANCED_FACE ( 'NONE', ( #30, #212 ), #56, .T. ) ;
#54 = EDGE_LOOP ( 'NONE', ( #290 ) ) ;
#55 = PERSON_AND_ORGANIZATION ( #236, #260 ) ;
#56 = CONICAL_SURFACE ( 'NONE', #6, 1.499999999999996003, 0.1745329251994266473 ) ;
#57 = MANIFOLD_SOLID_BREP ( 'Corps-Déplacer/Copier1[2]', #173 ) ;
#58 = DATE_TIME_ROLE ( 'creation_date' ) ;
#59 = FACE_OUTER_BOUND ( 'NONE', #72, .T. ) ;
#60 = AXIS2_PLACEMENT_3D ( 'NONE', #257, #91, #110 ) ;
#61 = CARTESIAN_POINT ( 'NONE',  ( 3.491481338843133355E-14, 9.935908560134790230E-33, 10.00000000000000000 ) ) ;
#62 = LOCAL_TIME ( 8, 11, 28.00000000000000000, #13 ) ;
#63 = CARTESIAN_POINT ( 'NONE',  ( 3.491481338843133355E-14, 9.935908560134790230E-33, 10.00000000000000000 ) ) ;
#64 = DIRECTION ( 'NONE',  ( -3.491481338843133355E-15, 1.224646799147353454E-16, -1.000000000000000000 ) ) ;
#65 = FACE_BOUND ( 'NONE', #126, .T. ) ;
#66 = EDGE_CURVE ( 'NONE', #199, #199, #151, .T. ) ;
#67 = DIRECTION ( 'NONE',  ( -3.491481338843133355E-15, 1.224646799147353454E-16, -1.000000000000000000 ) ) ;
#68 = DIRECTION ( 'NONE',  ( 4.360596100499406410E-31, 1.000000000000000000, 1.227398685832647790E-16 ) ) ;
#69 = AXIS2_PLACEMENT_3D ( 'NONE', #80, #298, #179 ) ;
#70 = AXIS2_PLACEMENT_3D ( 'NONE', #185, #52, #147 ) ;
#71 = DIRECTION ( 'NONE',  ( 0.0000000000000000000, 1.000000000000000000, 0.0000000000000000000 ) ) ;
#72 = EDGE_LOOP ( 'NONE', ( #188 ) ) ;
#73 = DIRECTION ( 'NONE',  ( -3.491481338843133355E-15, 1.224646799147353454E-16, -1.000000000000000000 ) ) ;
#74 = EDGE_CURVE ( 'NONE', #226, #226, #20, .T. ) ;
#75 = ORIENTED_EDGE ( 'NONE', *, *, #152, .F. ) ;
#76 = PERSON_AND_ORGANIZATION ( #236, #260 ) ;
#77 = AXIS2_PLACEMENT_3D ( 'NONE', #3, #67, #280 ) ;
#78 = PERSON_AND_ORGANIZATION ( #236, #260 ) ;
#79 = PERSON_AND_ORGANIZATION_ROLE ( 'design_supplier' ) ;
#80 = CARTESIAN_POINT ( 'NONE',  ( 0.0000000000000000000, 0.0000000000000000000, 0.0000000000000000000 ) ) ;
#81 = AXIS2_PLACEMENT_3D ( 'NONE', #158, #180, #25 ) ;
#82 = VERTEX_POINT ( 'NONE', #175 ) ;
#83 = AXIS2_PLACEMENT_3D ( 'NONE', #211, #4, #71 ) ;
#84 = CARTESIAN_POINT ( 'NONE',  ( -8.110471515729141607E-32, 2.844770461985197662E-33, -2.322931365979021249E-17 ) ) ;
#85 = EDGE_CURVE ( 'NONE', #229, #229, #46, .T. ) ;
#86 = VERTEX_POINT ( 'NONE', #249 ) ;
#87 = FACE_OUTER_BOUND ( 'NONE', #287, .T. ) ;
#88 = PRODUCT ( '200683', '200683', '', ( #33 ) ) ;
#89 = CARTESIAN_POINT ( 'NONE',  ( 8.728703347107827472E-16, -3.061616997868381785E-17, 0.2499999999999998335 ) ) ;
#90 = DIRECTION ( 'NONE',  ( 4.275831445896960358E-31, 1.000000000000000000, 1.224646799147353454E-16 ) ) ;
#91 = DIRECTION ( 'NONE',  ( -3.491481338843133355E-15, 1.224646799147353454E-16, -1.000000000000000000 ) ) ;
#92 = DESIGN_CONTEXT ( 'detailed design', #225, 'design' ) ;
#93 = EDGE_LOOP ( 'NONE', ( #190 ) ) ;
#94 = AXIS2_PLACEMENT_3D ( 'NONE', #227, #161, #139 ) ;
#95 = EDGE_LOOP ( 'NONE', ( #237 ) ) ;
#96 = CC_DESIGN_PERSON_AND_ORGANIZATION_ASSIGNMENT ( #35, #39, ( #162 ) ) ;
#97 = ORIENTED_EDGE ( 'NONE', *, *, #47, .T. ) ;
#98 = CARTESIAN_POINT ( 'NONE',  ( 9.532340403339405712E-14, -3.343494932497784210E-15, 27.30170800940854647 ) ) ;
#99 = CONICAL_SURFACE ( 'NONE', #142, 1.124999999999998224, 0.5235987755982929315 ) ;
#100 = PERSON_AND_ORGANIZATION_ROLE ( 'classification_officer' ) ;
#101 = ORIENTED_EDGE ( 'NONE', *, *, #74, .T. ) ;
#102 = CALENDAR_DATE ( 2021, 2, 12 ) ;
#103 = CC_DESIGN_SECURITY_CLASSIFICATION ( #144, ( #193 ) ) ;
#104 = PERSON_AND_ORGANIZATION ( #236, #260 ) ;
#105 = APPLICATION_PROTOCOL_DEFINITION ( 'international standard', 'config_control_design', 1994, #225 ) ;
#106 = DATE_AND_TIME ( #221, #37 ) ;
#107 = EDGE_CURVE ( 'NONE', #41, #41, #271, .T. ) ;
#108 = CYLINDRICAL_SURFACE ( 'NONE', #69, 1.124999999999998890 ) ;
#109 = DIRECTION ( 'NONE',  ( 3.491481338843133355E-15, -1.224646799147353454E-16, 1.000000000000000000 ) ) ;
#110 = DIRECTION ( 'NONE',  ( 0.0000000000000000000, 1.000000000000000000, 0.0000000000000000000 ) ) ;
#111 = CIRCLE ( 'NONE', #81, 1.324999999999999956 ) ;
#112 = CARTESIAN_POINT ( 'NONE',  ( 3.491481338843133355E-14, -1.224646799147353454E-15, 10.00000000000000000 ) ) ;
#113 = CIRCLE ( 'NONE', #70, 1.155384493975579741 ) ;
#114 = DIRECTION ( 'NONE',  ( -3.491481338843133355E-15, 1.224646799147353454E-16, -1.000000000000000000 ) ) ;
#115 = CARTESIAN_POINT ( 'NONE',  ( 3.491481338843133355E-14, 1.324999999999998623, 10.00000000000000000 ) ) ;
#116 = DIRECTION ( 'NONE',  ( -4.275831445896959482E-31, -1.000000000000000000, -1.224646799147353454E-16 ) ) ;
#117 = DIRECTION ( 'NONE',  ( 3.491481338843133355E-15, -1.224646799147353454E-16, 1.000000000000000000 ) ) ;
#118 = AXIS2_PLACEMENT_3D ( 'NONE', #89, #141, #68 ) ;
#119 = CYLINDRICAL_SURFACE ( 'NONE', #258, 1.499999999999999334 ) ;
#120 = LOCAL_TIME ( 8, 11, 28.00000000000000000, #196 ) ;
#121 = FACE_OUTER_BOUND ( 'NONE', #54, .T. ) ;
#122 = ADVANCED_FACE ( 'NONE', ( #231, #232 ), #220, .F. ) ;
#123 = ORIENTED_EDGE ( 'NONE', *, *, #66, .T. ) ;
#124 = PLANE ( 'NONE',  #201 ) ;
#125 = APPROVAL_ROLE ( '' ) ;
#126 = EDGE_LOOP ( 'NONE', ( #9 ) ) ;
#127 = DATE_AND_TIME ( #297, #120 ) ;
#128 = APPLICATION_CONTEXT ( 'configuration controlled 3d designs of mechanical parts and assemblies' ) ;
#129 = CC_DESIGN_APPROVAL ( #248, ( #193 ) ) ;
#130 = SECURITY_CLASSIFICATION_LEVEL ( 'unclassified' ) ;
#131 = ADVANCED_FACE ( 'NONE', ( #209 ), #255, .T. ) ;
#132 = APPROVAL_STATUS ( 'not_yet_approved' ) ;
#133 = ADVANCED_FACE ( 'NONE', ( #160 ), #208, .F. ) ;
#134 = VERTEX_POINT ( 'NONE', #115 ) ;
#135 = FACE_OUTER_BOUND ( 'NONE', #50, .T. ) ;
#136 = FACE_OUTER_BOUND ( 'NONE', #218, .T. ) ;
#137 = CARTESIAN_POINT ( 'NONE',  ( 8.728703347107833388E-14, 1.124999999999996669, 25.00000000000000000 ) ) ;
#138 = AXIS2_PLACEMENT_3D ( 'NONE', #200, #114, #203 ) ;
#139 = DIRECTION ( 'NONE',  ( 0.0000000000000000000, 1.000000000000000000, 0.0000000000000000000 ) ) ;
#140 = DIRECTION ( 'NONE',  ( -3.491481338843133355E-15, 1.224646799147353454E-16, -1.000000000000000000 ) ) ;
#141 = DIRECTION ( 'NONE',  ( -3.491481338843133355E-15, 1.224646799147353454E-16, -1.000000000000000000 ) ) ;
#142 = AXIS2_PLACEMENT_3D ( 'NONE', #281, #140, #1 ) ;
#143 = ADVANCED_FACE ( 'NONE', ( #65, #23 ), #243, .T. ) ;
#144 = SECURITY_CLASSIFICATION ( '', '', #130 ) ;
#145 = ORIENTED_EDGE ( 'NONE', *, *, #152, .T. ) ;
#146 = EDGE_LOOP ( 'NONE', ( #97 ) ) ;
#147 = DIRECTION ( 'NONE',  ( 0.0000000000000000000, 1.000000000000000000, 0.0000000000000000000 ) ) ;
#148 = DIRECTION ( 'NONE',  ( 0.0000000000000000000, 0.0000000000000000000, 1.000000000000000000 ) ) ;
#149 = ORIENTED_EDGE ( 'NONE', *, *, #47, .F. ) ;
#150 = CC_DESIGN_DATE_AND_TIME_ASSIGNMENT ( #127, #265, ( #144 ) ) ;
#151 = CIRCLE ( 'NONE', #83, 1.124999999999999778 ) ;
#152 = EDGE_CURVE ( 'NONE', #177, #177, #154, .T. ) ;
#153 = CC_DESIGN_PERSON_AND_ORGANIZATION_ASSIGNMENT ( #104, #100, ( #144 ) ) ;
#154 = CIRCLE ( 'NONE', #118, 1.324999999999998623 ) ;
#155 = PLANE ( 'NONE',  #217 ) ;
#156 = CARTESIAN_POINT ( 'NONE',  ( 9.532340403339405712E-14, 1.499999999999992673, 27.30170800940854647 ) ) ;
#157 = LOCAL_TIME ( 8, 11, 28.00000000000000000, #195 ) ;
#158 = CARTESIAN_POINT ( 'NONE',  ( 3.491481338843133355E-14, -1.224646799147353454E-15, 10.00000000000000000 ) ) ;
#159 = CYLINDRICAL_SURFACE ( 'NONE', #176, 1.324999999999999289 ) ;
#160 = FACE_OUTER_BOUND ( 'NONE', #266, .T. ) ;
#161 = DIRECTION ( 'NONE',  ( -3.491481338843133355E-15, 1.224646799147353454E-16, -1.000000000000000000 ) ) ;
#162 = PRODUCT_DEFINITION ( 'UNKNOWN', '', #193, #92 ) ;
#163 = FACE_BOUND ( 'NONE', #165, .T. ) ;
#164 = CIRCLE ( 'NONE', #276, 1.324999999999999956 ) ;
#165 = EDGE_LOOP ( 'NONE', ( #32 ) ) ;
#166 = AXIS2_PLACEMENT_3D ( 'NONE', #245, #148, #240 ) ;
#167 = EDGE_LOOP ( 'NONE', ( #215 ) ) ;
#168 = ORIENTED_EDGE ( 'NONE', *, *, #251, .F. ) ;
#169 = EDGE_LOOP ( 'NONE', ( #187 ) ) ;
#170 = PERSON_AND_ORGANIZATION_ROLE ( 'design_owner' ) ;
#171 = APPROVAL_DATE_TIME ( #293, #259 ) ;
#172 = ADVANCED_FACE ( 'NONE', ( #87, #182 ), #99, .T. ) ;
#173 = CLOSED_SHELL ( 'NONE', ( #133, #143, #238, #131 ) ) ;
#174 = EDGE_CURVE ( 'NONE', #299, #299, #111, .T. ) ;
#175 = CARTESIAN_POINT ( 'NONE',  ( 3.785471652766322713E-31, 1.075000000000001288, 1.084202172485504434E-16 ) ) ;
#176 = AXIS2_PLACEMENT_3D ( 'NONE', #202, #18, #279 ) ;
#177 = VERTEX_POINT ( 'NONE', #17 ) ;
#178 = DIRECTION ( 'NONE',  ( -3.491481338843133355E-15, 1.224646799147353454E-16, -1.000000000000000000 ) ) ;
#179 = DIRECTION ( 'NONE',  ( 4.275831445896959482E-31, 1.000000000000000000, 1.224646799147353454E-16 ) ) ;
#180 = DIRECTION ( 'NONE',  ( -3.491481338843133355E-15, 1.224646799147353454E-16, -1.000000000000000000 ) ) ;
#181 = ADVANCED_BREP_SHAPE_REPRESENTATION ( '200683', ( #262, #57, #166 ), #26 ) ;
#182 = FACE_BOUND ( 'NONE', #268, .T. ) ;
#183 = ADVANCED_FACE ( 'NONE', ( #300, #302 ), #119, .T. ) ;
#184 = DIRECTION ( 'NONE',  ( -4.360596100499406410E-31, -1.000000000000000000, -1.227398685832647790E-16 ) ) ;
#185 = CARTESIAN_POINT ( 'NONE',  ( 8.849961221477469775E-14, -3.104148534859897544E-15, 25.34729635533384595 ) ) ;
#186 = AXIS2_PLACEMENT_3D ( 'NONE', #286, #239, #241 ) ;
#187 = ORIENTED_EDGE ( 'NONE', *, *, #74, .F. ) ;
#188 = ORIENTED_EDGE ( 'NONE', *, *, #251, .T. ) ;
#189 = AXIS2_PLACEMENT_3D ( 'NONE', #84, #178, #278 ) ;
#190 = ORIENTED_EDGE ( 'NONE', *, *, #66, .F. ) ;
#191 = APPROVAL_STATUS ( 'not_yet_approved' ) ;
#192 = DIRECTION ( 'NONE',  ( 0.0000000000000000000, -1.000000000000000000, 0.0000000000000000000 ) ) ;
#193 = PRODUCT_DEFINITION_FORMATION_WITH_SPECIFIED_SOURCE ( 'ANY', '', #88, .NOT_KNOWN. ) ;
#194 = PERSON_AND_ORGANIZATION ( #236, #260 ) ;
#195 = COORDINATED_UNIVERSAL_TIME_OFFSET ( 1, 0, .AHEAD. ) ;
#196 = COORDINATED_UNIVERSAL_TIME_OFFSET ( 1, 0, .AHEAD. ) ;
#197 =( NAMED_UNIT ( * ) SI_UNIT ( $, .STERADIAN. ) SOLID_ANGLE_UNIT ( ) );
#198 = CIRCLE ( 'NONE', #189, 1.075000000000001288 ) ;
#199 = VERTEX_POINT ( 'NONE', #137 ) ;
#200 = CARTESIAN_POINT ( 'NONE',  ( 3.612429800294234159E-14, -1.267069808696350687E-15, 10.34641016151378423 ) ) ;
#201 = AXIS2_PLACEMENT_3D ( 'NONE', #288, #73, #27 ) ;
#202 = CARTESIAN_POINT ( 'NONE',  ( 0.0000000000000000000, 0.0000000000000000000, 0.0000000000000000000 ) ) ;
#203 = DIRECTION ( 'NONE',  ( 0.0000000000000000000, 1.000000000000000000, 0.0000000000000000000 ) ) ;
#204 = CC_DESIGN_APPROVAL ( #259, ( #144 ) ) ;
#205 = CARTESIAN_POINT ( 'NONE',  ( 8.728703347107827472E-16, -3.061616997868381785E-17, 0.2499999999999998335 ) ) ;
#206 = CC_DESIGN_PERSON_AND_ORGANIZATION_ASSIGNMENT ( #55, #79, ( #193 ) ) ;
#207 = PRODUCT_DEFINITION_SHAPE ( 'NONE', 'NONE',  #162 ) ;
#208 = PLANE ( 'NONE',  #28 ) ;
#209 = FACE_OUTER_BOUND ( 'NONE', #7, .T. ) ;
#210 = APPROVAL_PERSON_ORGANIZATION ( #76, #248, #223 ) ;
#211 = CARTESIAN_POINT ( 'NONE',  ( 8.728703347107833388E-14, -3.061616997868383831E-15, 25.00000000000000000 ) ) ;
#212 = FACE_OUTER_BOUND ( 'NONE', #10, .T. ) ;
#213 = ORIENTED_EDGE ( 'NONE', *, *, #235, .T. ) ;
#214 = ADVANCED_FACE ( 'NONE', ( #136, #163 ), #34, .T. ) ;
#215 = ORIENTED_EDGE ( 'NONE', *, *, #85, .F. ) ;
#216 = COORDINATED_UNIVERSAL_TIME_OFFSET ( 1, 0, .AHEAD. ) ;
#217 = AXIS2_PLACEMENT_3D ( 'NONE', #61, #109, #274 ) ;
#218 = EDGE_LOOP ( 'NONE', ( #149 ) ) ;
#219 = APPROVAL_ROLE ( '' ) ;
#220 = TOROIDAL_SURFACE ( 'NONE', #5, 3.124999999999999556, 2.000000000000000888 ) ;
#221 = CALENDAR_DATE ( 2021, 2, 12 ) ;
#222 = PERSON_AND_ORGANIZATION ( #236, #260 ) ;
#223 = APPROVAL_ROLE ( '' ) ;
#224 = CARTESIAN_POINT ( 'NONE',  ( 2.129803616694311221E-13, 1.199999999999995515, 61.00000000000000000 ) ) ;
#225 = APPLICATION_CONTEXT ( 'configuration controlled 3d designs of mechanical parts and assemblies' ) ;
#226 = VERTEX_POINT ( 'NONE', #156 ) ;
#227 = CARTESIAN_POINT ( 'NONE',  ( 9.532340403339405712E-14, -3.343494932497784210E-15, 27.30170800940854647 ) ) ;
#228 = CIRCLE ( 'NONE', #186, 1.500000000000002887 ) ;
#229 = VERTEX_POINT ( 'NONE', #21 ) ;
#230 = DIRECTION ( 'NONE',  ( 3.491481338843133355E-15, -1.224646799147353454E-16, 1.000000000000000000 ) ) ;
#231 = FACE_OUTER_BOUND ( 'NONE', #93, .T. ) ;
#232 = FACE_OUTER_BOUND ( 'NONE', #29, .T. ) ;
#233 = APPROVAL_PERSON_ORGANIZATION ( #78, #2, #125 ) ;
#234 = EDGE_LOOP ( 'NONE', ( #275 ) ) ;
#235 = EDGE_CURVE ( 'NONE', #82, #82, #198, .T. ) ;
#236 = PERSON ( 'UNSPECIFIED', 'UNSPECIFIED', 'UNSPECIFIED', ('UNSPECIFIED'), ('UNSPECIFIED'), ('UNSPECIFIED') ) ;
#237 = ORIENTED_EDGE ( 'NONE', *, *, #174, .T. ) ;
#238 = ADVANCED_FACE ( 'NONE', ( #252, #44 ), #159, .T. ) ;
#239 = DIRECTION ( 'NONE',  ( -3.491481338843133355E-15, 1.224646799147353454E-16, -1.000000000000000000 ) ) ;
#240 = DIRECTION ( 'NONE',  ( 1.000000000000000000, 0.0000000000000000000, 0.0000000000000000000 ) ) ;
#241 = DIRECTION ( 'NONE',  ( 0.0000000000000000000, 1.000000000000000000, 0.0000000000000000000 ) ) ;
#242 = APPLICATION_PROTOCOL_DEFINITION ( 'international standard', 'config_control_design', 1994, #128 ) ;
#243 = CONICAL_SURFACE ( 'NONE', #289, 1.324999999999998623, 0.7853981633974433940 ) ;
#244 = CLOSED_SHELL ( 'NONE', ( #285, #172, #273, #122, #53, #183, #214, #24 ) ) ;
#245 = CARTESIAN_POINT ( 'NONE',  ( 0.0000000000000000000, 0.0000000000000000000, 0.0000000000000000000 ) ) ;
#246 = DATE_AND_TIME ( #291, #157 ) ;
#247 = CARTESIAN_POINT ( 'NONE',  ( 8.849961221477469775E-14, 1.155384493975576854, 25.34729635533384595 ) ) ;
#248 = APPROVAL ( #132, 'UNSPECIFIED' ) ;
#249 = CARTESIAN_POINT ( 'NONE',  ( 2.119329172677781757E-13, 1.499999999999995559, 60.69999999999999574 ) ) ;
#250 = DIRECTION ( 'NONE',  ( 0.0000000000000000000, 1.000000000000000000, 0.0000000000000000000 ) ) ;
#251 = EDGE_CURVE ( 'NONE', #134, #134, #164, .T. ) ;
#252 = FACE_OUTER_BOUND ( 'NONE', #253, .T. ) ;
#253 = EDGE_LOOP ( 'NONE', ( #75 ) ) ;
#254 = VERTEX_POINT ( 'NONE', #247 ) ;
#255 = PLANE ( 'NONE',  #294 ) ;
#256 = CARTESIAN_POINT ( 'NONE',  ( 8.728703347107833388E-14, -3.035766082959412415E-15, 25.00000000000000000 ) ) ;
#257 = CARTESIAN_POINT ( 'NONE',  ( 2.129803616694311221E-13, -7.470345474798856659E-15, 61.00000000000000000 ) ) ;
#258 = AXIS2_PLACEMENT_3D ( 'NONE', #282, #43, #90 ) ;
#259 = APPROVAL ( #191, 'UNSPECIFIED' ) ;
#260 = ORGANIZATION ( 'UNSPECIFIED', 'UNSPECIFIED', '' ) ;
#261 = ORIENTED_EDGE ( 'NONE', *, *, #174, .F. ) ;
#262 = MANIFOLD_SOLID_BREP ( 'Corps-Déplacer/Copier1[1]', #244 ) ;
#263 = ORIENTED_EDGE ( 'NONE', *, *, #36, .T. ) ;
#264 = CC_DESIGN_PERSON_AND_ORGANIZATION_ASSIGNMENT ( #222, #270, ( #193 ) ) ;
#265 = DATE_TIME_ROLE ( 'classification_date' ) ;
#266 = EDGE_LOOP ( 'NONE', ( #213 ) ) ;
#267 = COORDINATED_UNIVERSAL_TIME_OFFSET ( 1, 0, .AHEAD. ) ;
#268 = EDGE_LOOP ( 'NONE', ( #8 ) ) ;
#269 = SHAPE_DEFINITION_REPRESENTATION ( #207, #181 ) ;
#270 = PERSON_AND_ORGANIZATION_ROLE ( 'creator' ) ;
#271 = CIRCLE ( 'NONE', #77, 1.200000000000002842 ) ;
#272 = CALENDAR_DATE ( 2021, 2, 12 ) ;
#273 = ADVANCED_FACE ( 'NONE', ( #301, #135 ), #108, .T. ) ;
#274 = DIRECTION ( 'NONE',  ( -4.275831445896959482E-31, -1.000000000000000000, -1.224646799147353454E-16 ) ) ;
#275 = ORIENTED_EDGE ( 'NONE', *, *, #36, .F. ) ;
#276 = AXIS2_PLACEMENT_3D ( 'NONE', #112, #64, #250 ) ;
#277 =( NAMED_UNIT ( * ) PLANE_ANGLE_UNIT ( ) SI_UNIT ( $, .RADIAN. ) );
#278 = DIRECTION ( 'NONE',  ( 4.275831445896959482E-31, 1.000000000000000000, 1.224646799147353454E-16 ) ) ;
#279 = DIRECTION ( 'NONE',  ( 4.275831445896959482E-31, 1.000000000000000000, 1.224646799147353454E-16 ) ) ;
#280 = DIRECTION ( 'NONE',  ( 0.0000000000000000000, 1.000000000000000000, 0.0000000000000000000 ) ) ;
#281 = CARTESIAN_POINT ( 'NONE',  ( 3.612429800294234159E-14, -1.267069808696350687E-15, 10.34641016151378423 ) ) ;
#282 = CARTESIAN_POINT ( 'NONE',  ( 0.0000000000000000000, 0.0000000000000000000, 0.0000000000000000000 ) ) ;
#283 = UNCERTAINTY_MEASURE_WITH_UNIT (LENGTH_MEASURE( 1.000000000000000082E-05 ), #42, 'distance_accuracy_value', 'NONE');
#284 = PRODUCT_RELATED_PRODUCT_CATEGORY ( 'detail', '', ( #88 ) ) ;
#285 = ADVANCED_FACE ( 'NONE', ( #59 ), #155, .F. ) ;
#286 = CARTESIAN_POINT ( 'NONE',  ( 2.119329172677781757E-13, -7.433606070824434221E-15, 60.69999999999999574 ) ) ;
#287 = EDGE_LOOP ( 'NONE', ( #168 ) ) ;
#288 = CARTESIAN_POINT ( 'NONE',  ( 2.129803616694311221E-13, 8.998558695971062171E-33, 61.00000000000000000 ) ) ;
#289 = AXIS2_PLACEMENT_3D ( 'NONE', #205, #117, #184 ) ;
#290 = ORIENTED_EDGE ( 'NONE', *, *, #107, .F. ) ;
#291 = CALENDAR_DATE ( 2021, 2, 12 ) ;
#292 = APPROVAL_PERSON_ORGANIZATION ( #194, #259, #219 ) ;
#293 = DATE_AND_TIME ( #102, #62 ) ;
#294 = AXIS2_PLACEMENT_3D ( 'NONE', #63, #22, #49 ) ;
#295 = DATE_AND_TIME ( #272, #14 ) ;
#296 = CC_DESIGN_PERSON_AND_ORGANIZATION_ASSIGNMENT ( #31, #170, ( #88 ) ) ;
#297 = CALENDAR_DATE ( 2021, 2, 12 ) ;
#298 = DIRECTION ( 'NONE',  ( -3.491481338843133355E-15, 1.224646799147353454E-16, -1.000000000000000000 ) ) ;
#299 = VERTEX_POINT ( 'NONE', #40 ) ;
#300 = FACE_OUTER_BOUND ( 'NONE', #169, .T. ) ;
#301 = FACE_OUTER_BOUND ( 'NONE', #167, .T. ) ;
#302 = FACE_OUTER_BOUND ( 'NONE', #146, .T. ) ;
#303 = CC_DESIGN_APPROVAL ( #2, ( #162 ) ) ;
ENDSEC;
END-ISO-10303-21;
