ISO-10303-21;
HEADER;
FILE_DESCRIPTION (( 'STEP AP203' ),
    '1' );
FILE_NAME ('200682.step',
    '2021-12-01T14:03:27',
    ( '' ),
    ( '' ),
    'SwSTEP 2.0',
    'SolidWorks 2019',
    '' );
FILE_SCHEMA (( 'CONFIG_CONTROL_DESIGN' ));
ENDSEC;

DATA;
#1 = PERSON_AND_ORGANIZATION ( #212, #273 ) ;
#2 = FACE_OUTER_BOUND ( 'NONE', #13, .T. ) ;
#3 = EDGE_CURVE ( 'NONE', #267, #267, #159, .T. ) ;
#4 = CYLINDRICAL_SURFACE ( 'NONE', #89, 1.500000000000000000 ) ;
#5 = DIRECTION ( 'NONE',  ( -3.491481338843133355E-15, 1.224646799147353207E-16, -1.000000000000000000 ) ) ;
#6 = DIRECTION ( 'NONE',  ( -3.491481338843133355E-15, 1.224646799147353207E-16, -1.000000000000000000 ) ) ;
#7 = FACE_OUTER_BOUND ( 'NONE', #113, .T. ) ;
#8 =( NAMED_UNIT ( * ) PLANE_ANGLE_UNIT ( ) SI_UNIT ( $, .RADIAN. ) );
#9 = ADVANCED_FACE ( 'NONE', ( #130 ), #109, .T. ) ;
#10 = LOCAL_TIME ( 15, 3, 27.00000000000000000, #118 ) ;
#11 = CONICAL_SURFACE ( 'NONE', #183, 1.200000000000001732, 0.7853981633974453924 ) ;
#12 = DIRECTION ( 'NONE',  ( -3.491481338843133355E-15, 1.224646799147353207E-16, -1.000000000000000000 ) ) ;
#13 = EDGE_LOOP ( 'NONE', ( #66 ) ) ;
#14 = ORIENTED_EDGE ( 'NONE', *, *, #29, .F. ) ;
#15 = EDGE_LOOP ( 'NONE', ( #251 ) ) ;
#16 = CIRCLE ( 'NONE', #131, 0.8306624327025950993 ) ;
#17 = CARTESIAN_POINT ( 'NONE',  ( 0.0000000000000000000, 0.0000000000000000000, 0.0000000000000000000 ) ) ;
#18 = EDGE_LOOP ( 'NONE', ( #119 ) ) ;
#19 = APPROVAL ( #283, 'UNSPECIFIED' ) ;
#20 = PERSON_AND_ORGANIZATION ( #212, #273 ) ;
#21 = AXIS2_PLACEMENT_3D ( 'NONE', #56, #266, #32 ) ;
#22 = APPROVAL_ROLE ( '' ) ;
#23 = LOCAL_TIME ( 15, 3, 27.00000000000000000, #230 ) ;
#24 = APPROVAL_DATE_TIME ( #166, #222 ) ;
#25 = AXIS2_PLACEMENT_3D ( 'NONE', #252, #158, #45 ) ;
#26 = SHAPE_DEFINITION_REPRESENTATION ( #244, #176 ) ;
#27 = DIRECTION ( 'NONE',  ( -3.491481338843133355E-15, 1.224646799147353207E-16, -1.000000000000000000 ) ) ;
#28 = PERSON_AND_ORGANIZATION ( #212, #273 ) ;
#29 = EDGE_CURVE ( 'NONE', #60, #60, #44, .T. ) ;
#30 = EDGE_LOOP ( 'NONE', ( #110 ) ) ;
#31 = FACE_OUTER_BOUND ( 'NONE', #181, .T. ) ;
#32 = DIRECTION ( 'NONE',  ( 0.0000000000000000000, 1.000000000000000000, 0.0000000000000000000 ) ) ;
#33 = ADVANCED_FACE ( 'NONE', ( #157, #67 ), #296, .T. ) ;
#34 = DIRECTION ( 'NONE',  ( -3.491481338843133355E-15, 1.224646799147353207E-16, -1.000000000000000000 ) ) ;
#35 = CARTESIAN_POINT ( 'NONE',  ( 2.793185071074506684E-14, 0.9749999999999996447, 8.000000000000000000 ) ) ;
#36 = CLOSED_SHELL ( 'NONE', ( #108, #246, #136, #9 ) ) ;
#37 = DIRECTION ( 'NONE',  ( 3.491481338843133355E-15, -1.224646799147353207E-16, 1.000000000000000000 ) ) ;
#38 = EDGE_LOOP ( 'NONE', ( #87 ) ) ;
#39 = ORIENTED_EDGE ( 'NONE', *, *, #184, .F. ) ;
#40 = EDGE_LOOP ( 'NONE', ( #114 ) ) ;
#41 = CONICAL_SURFACE ( 'NONE', #156, 0.9749999999999996447, 0.5235987755982930425 ) ;
#42 = EDGE_CURVE ( 'NONE', #124, #124, #141, .T. ) ;
#43 = EDGE_LOOP ( 'NONE', ( #165 ) ) ;
#44 = CIRCLE ( 'NONE', #253, 0.8553844939755816945 ) ;
#45 = DIRECTION ( 'NONE',  ( 0.0000000000000000000, 1.000000000000000000, 0.0000000000000000000 ) ) ;
#46 = CC_DESIGN_PERSON_AND_ORGANIZATION_ASSIGNMENT ( #162, #138, ( #140 ) ) ;
#47 = MANIFOLD_SOLID_BREP ( 'Corps-Déplacer/Copier1[2]', #36 ) ;
#48 = CALENDAR_DATE ( 2021, 1, 12 ) ;
#49 = APPROVAL_DATE_TIME ( #69, #163 ) ;
#50 = EDGE_CURVE ( 'NONE', #128, #128, #174, .T. ) ;
#51 = AXIS2_PLACEMENT_3D ( 'NONE', #106, #198, #146 ) ;
#52 = CLOSED_SHELL ( 'NONE', ( #147, #254, #33, #70, #117, #280, #139, #65 ) ) ;
#53 = CIRCLE ( 'NONE', #229, 0.9749999999999996447 ) ;
#54 = FACE_BOUND ( 'NONE', #95, .T. ) ;
#55 = VERTEX_POINT ( 'NONE', #152 ) ;
#56 = CARTESIAN_POINT ( 'NONE',  ( 2.793185071074506684E-14, -9.797174393178825657E-16, 8.000000000000000000 ) ) ;
#57 =( LENGTH_UNIT ( ) NAMED_UNIT ( * ) SI_UNIT ( .MILLI., .METRE. ) );
#58 = CC_DESIGN_PERSON_AND_ORGANIZATION_ASSIGNMENT ( #121, #188, ( #199 ) ) ;
#59 = PLANE ( 'NONE',  #116 ) ;
#60 = VERTEX_POINT ( 'NONE', #291 ) ;
#61 = DIRECTION ( 'NONE',  ( -3.491481338843133355E-15, 1.224646799147353207E-16, -1.000000000000000000 ) ) ;
#62 =( NAMED_UNIT ( * ) SI_UNIT ( $, .STERADIAN. ) SOLID_ANGLE_UNIT ( ) );
#63 = FACE_OUTER_BOUND ( 'NONE', #88, .T. ) ;
#64 = FACE_OUTER_BOUND ( 'NONE', #15, .T. ) ;
#65 = ADVANCED_FACE ( 'NONE', ( #64 ), #197, .F. ) ;
#66 = ORIENTED_EDGE ( 'NONE', *, *, #3, .T. ) ;
#67 = FACE_OUTER_BOUND ( 'NONE', #155, .T. ) ;
#68 = CC_DESIGN_APPROVAL ( #163, ( #140 ) ) ;
#69 = DATE_AND_TIME ( #278, #73 ) ;
#70 = ADVANCED_FACE ( 'NONE', ( #288, #79 ), #302, .F. ) ;
#71 = APPLICATION_CONTEXT ( 'configuration controlled 3d designs of mechanical parts and assemblies' ) ;
#72 = ORIENTED_EDGE ( 'NONE', *, *, #50, .T. ) ;
#73 = LOCAL_TIME ( 15, 3, 27.00000000000000000, #137 ) ;
#74 = SECURITY_CLASSIFICATION_LEVEL ( 'unclassified' ) ;
#75 = CARTESIAN_POINT ( 'NONE',  ( 1.745740669421566678E-13, -6.123233995736766085E-15, 50.00000000000000000 ) ) ;
#76 = VERTEX_POINT ( 'NONE', #193 ) ;
#77 = DIRECTION ( 'NONE',  ( 0.0000000000000000000, -1.000000000000000000, 0.0000000000000000000 ) ) ;
#78 = VERTEX_POINT ( 'NONE', #103 ) ;
#79 = FACE_OUTER_BOUND ( 'NONE', #133, .T. ) ;
#80 = CARTESIAN_POINT ( 'NONE',  ( 7.682338705364703204E-14, 1.499999999999995781, 22.00309255529393226 ) ) ;
#81 = AXIS2_PLACEMENT_3D ( 'NONE', #285, #127, #167 ) ;
#82 = DIRECTION ( 'NONE',  ( -4.275831445896958607E-31, -1.000000000000000000, -1.224646799147353207E-16 ) ) ;
#83 = DIRECTION ( 'NONE',  ( 1.000000000000000000, 0.0000000000000000000, 0.0000000000000000000 ) ) ;
#84 = CARTESIAN_POINT ( 'NONE',  ( 8.728703347107833388E-16, -3.061616997868383018E-17, 0.2500000000000000000 ) ) ;
#85 = DIRECTION ( 'NONE',  ( -3.491481338843133355E-15, 1.224646799147353207E-16, -1.000000000000000000 ) ) ;
#86 = DIRECTION ( 'NONE',  ( 3.491481338843133355E-15, -1.224646799147353207E-16, 1.000000000000000000 ) ) ;
#87 = ORIENTED_EDGE ( 'NONE', *, *, #42, .F. ) ;
#88 = EDGE_LOOP ( 'NONE', ( #220 ) ) ;
#89 = AXIS2_PLACEMENT_3D ( 'NONE', #120, #5, #211 ) ;
#90 = APPROVAL_STATUS ( 'not_yet_approved' ) ;
#91 = AXIS2_PLACEMENT_3D ( 'NONE', #245, #225, #297 ) ;
#92 = APPLICATION_PROTOCOL_DEFINITION ( 'international standard', 'config_control_design', 1994, #161 ) ;
#93 = DATE_TIME_ROLE ( 'creation_date' ) ;
#94 = PRODUCT_DEFINITION ( 'UNKNOWN', '', #140, #123 ) ;
#95 = EDGE_LOOP ( 'NONE', ( #39 ) ) ;
#96 = DATE_AND_TIME ( #98, #257 ) ;
#97 = FACE_OUTER_BOUND ( 'NONE', #282, .T. ) ;
#98 = CALENDAR_DATE ( 2021, 1, 12 ) ;
#99 = DIRECTION ( 'NONE',  ( 4.275831445896958607E-31, 1.000000000000000000, 1.224646799147353207E-16 ) ) ;
#100 = CARTESIAN_POINT ( 'NONE',  ( 0.0000000000000000000, 0.0000000000000000000, 0.0000000000000000000 ) ) ;
#101 = CIRCLE ( 'NONE', #223, 1.500000000000001554 ) ;
#102 = CARTESIAN_POINT ( 'NONE',  ( 1.745740669421566678E-13, -6.123233995736766085E-15, 50.00000000000000000 ) ) ;
#103 = CARTESIAN_POINT ( 'NONE',  ( 8.728703347107837333E-16, 0.9749999999999996447, 0.2500000000000001110 ) ) ;
#104 = CC_DESIGN_APPROVAL ( #19, ( #199 ) ) ;
#105 = DIRECTION ( 'NONE',  ( -4.275831445896958607E-31, -1.000000000000000000, -1.224646799147353207E-16 ) ) ;
#106 = CARTESIAN_POINT ( 'NONE',  ( 6.284666409917640040E-14, -2.204364238465235428E-15, 18.00000000000000000 ) ) ;
#107 = DIRECTION ( 'NONE',  ( 0.0000000000000000000, 1.000000000000000000, 0.0000000000000000000 ) ) ;
#108 = ADVANCED_FACE ( 'NONE', ( #236 ), #59, .F. ) ;
#109 = PLANE ( 'NONE',  #186 ) ;
#110 = ORIENTED_EDGE ( 'NONE', *, *, #184, .T. ) ;
#111 = DIRECTION ( 'NONE',  ( 4.275831445896958607E-31, 1.000000000000000000, 1.224646799147353207E-16 ) ) ;
#112 = CC_DESIGN_PERSON_AND_ORGANIZATION_ASSIGNMENT ( #234, #256, ( #140 ) ) ;
#113 = EDGE_LOOP ( 'NONE', ( #144 ) ) ;
#114 = ORIENTED_EDGE ( 'NONE', *, *, #3, .F. ) ;
#115 = PRODUCT_RELATED_PRODUCT_CATEGORY ( 'detail', '', ( #275 ) ) ;
#116 = AXIS2_PLACEMENT_3D ( 'NONE', #172, #240, #105 ) ;
#117 = ADVANCED_FACE ( 'NONE', ( #218, #97 ), #134, .T. ) ;
#118 = COORDINATED_UNIVERSAL_TIME_OFFSET ( 1, 0, .AHEAD. ) ;
#119 = ORIENTED_EDGE ( 'NONE', *, *, #191, .T. ) ;
#120 = CARTESIAN_POINT ( 'NONE',  ( 0.0000000000000000000, 0.0000000000000000000, 0.0000000000000000000 ) ) ;
#121 = PERSON_AND_ORGANIZATION ( #212, #273 ) ;
#122 = FACE_OUTER_BOUND ( 'NONE', #206, .T. ) ;
#123 = DESIGN_CONTEXT ( 'detailed design', #161, 'design' ) ;
#124 = VERTEX_POINT ( 'NONE', #215 ) ;
#125 = CARTESIAN_POINT ( 'NONE',  ( 2.883896417162831814E-14, -1.011534696479630145E-15, 8.259807621135335509 ) ) ;
#126 = MECHANICAL_CONTEXT ( 'NONE', #71, 'mechanical' ) ;
#127 = DIRECTION ( 'NONE',  ( -3.491481338843133355E-15, 1.224646799147353207E-16, -1.000000000000000000 ) ) ;
#128 = VERTEX_POINT ( 'NONE', #80 ) ;
#129 = DIRECTION ( 'NONE',  ( 4.275831445896957731E-31, 1.000000000000000000, 1.224646799147353207E-16 ) ) ;
#130 = FACE_OUTER_BOUND ( 'NONE', #40, .T. ) ;
#131 = AXIS2_PLACEMENT_3D ( 'NONE', #262, #175, #293 ) ;
#132 = ORIENTED_EDGE ( 'NONE', *, *, #299, .T. ) ;
#133 = EDGE_LOOP ( 'NONE', ( #227 ) ) ;
#134 = CONICAL_SURFACE ( 'NONE', #232, 1.499999999999998224, 0.1745329251994261477 ) ;
#135 = CARTESIAN_POINT ( 'NONE',  ( 2.793185071074506684E-14, 7.311328940476547627E-33, 8.000000000000000000 ) ) ;
#136 = ADVANCED_FACE ( 'NONE', ( #7, #2 ), #216, .T. ) ;
#137 = COORDINATED_UNIVERSAL_TIME_OFFSET ( 1, 0, .AHEAD. ) ;
#138 = PERSON_AND_ORGANIZATION_ROLE ( 'design_supplier' ) ;
#139 = ADVANCED_FACE ( 'NONE', ( #264, #284 ), #11, .T. ) ;
#140 = PRODUCT_DEFINITION_FORMATION_WITH_SPECIFIED_SOURCE ( 'ANY', '', #275, .NOT_KNOWN. ) ;
#141 = CIRCLE ( 'NONE', #25, 0.8250000000000002887 ) ;
#142 = COORDINATED_UNIVERSAL_TIME_OFFSET ( 1, 0, .AHEAD. ) ;
#143 = PERSON_AND_ORGANIZATION ( #212, #273 ) ;
#144 = ORIENTED_EDGE ( 'NONE', *, *, #299, .F. ) ;
#145 = DIRECTION ( 'NONE',  ( 0.0000000000000000000, 1.000000000000000000, 0.0000000000000000000 ) ) ;
#146 = DIRECTION ( 'NONE',  ( 0.0000000000000000000, 1.000000000000000000, 0.0000000000000000000 ) ) ;
#147 = ADVANCED_FACE ( 'NONE', ( #219 ), #200, .F. ) ;
#148 = APPLICATION_PROTOCOL_DEFINITION ( 'international standard', 'config_control_design', 1994, #71 ) ;
#149 = DIRECTION ( 'NONE',  ( 0.0000000000000000000, 1.000000000000000000, 0.0000000000000000000 ) ) ;
#150 = CARTESIAN_POINT ( 'NONE',  ( 6.284666409917640040E-14, 0.8249999999999992895, 18.00000000000000000 ) ) ;
#151 = DIRECTION ( 'NONE',  ( 0.0000000000000000000, 1.000000000000000000, 0.0000000000000000000 ) ) ;
#152 = CARTESIAN_POINT ( 'NONE',  ( 1.735266225405037467E-13, 1.499999999999995559, 49.70000000000000284 ) ) ;
#153 = CC_DESIGN_APPROVAL ( #222, ( #94 ) ) ;
#154 = FACE_BOUND ( 'NONE', #269, .T. ) ;
#155 = EDGE_LOOP ( 'NONE', ( #247 ) ) ;
#156 = AXIS2_PLACEMENT_3D ( 'NONE', #84, #177, #268 ) ;
#157 = FACE_OUTER_BOUND ( 'NONE', #38, .T. ) ;
#158 = DIRECTION ( 'NONE',  ( -3.491481338843133355E-15, 1.224646799147353207E-16, -1.000000000000000000 ) ) ;
#159 = CIRCLE ( 'NONE', #91, 0.9750000000000006439 ) ;
#160 = APPROVAL_STATUS ( 'not_yet_approved' ) ;
#161 = APPLICATION_CONTEXT ( 'configuration controlled 3d designs of mechanical parts and assemblies' ) ;
#162 = PERSON_AND_ORGANIZATION ( #212, #273 ) ;
#163 = APPROVAL ( #90, 'UNSPECIFIED' ) ;
#164 = COORDINATED_UNIVERSAL_TIME_OFFSET ( 1, 0, .AHEAD. ) ;
#165 = ORIENTED_EDGE ( 'NONE', *, *, #204, .T. ) ;
#166 = DATE_AND_TIME ( #48, #298 ) ;
#167 = DIRECTION ( 'NONE',  ( 4.275831445896958607E-31, 1.000000000000000000, 1.224646799147353207E-16 ) ) ;
#168 = CC_DESIGN_DATE_AND_TIME_ASSIGNMENT ( #301, #187, ( #199 ) ) ;
#169 = AXIS2_PLACEMENT_3D ( 'NONE', #100, #195, #83 ) ;
#170 = CARTESIAN_POINT ( 'NONE',  ( 0.0000000000000000000, 0.0000000000000000000, 0.0000000000000000000 ) ) ;
#171 = VERTEX_POINT ( 'NONE', #150 ) ;
#172 = CARTESIAN_POINT ( 'NONE',  ( 1.168495510456502366E-32, -4.098530531378275348E-34, 3.346704155215881563E-18 ) ) ;
#173 = VERTEX_POINT ( 'NONE', #242 ) ;
#174 = CIRCLE ( 'NONE', #201, 1.499999999999998224 ) ;
#175 = DIRECTION ( 'NONE',  ( -3.491481338843133355E-15, 1.224646799147353207E-16, -1.000000000000000000 ) ) ;
#176 = ADVANCED_BREP_SHAPE_REPRESENTATION ( '200682', ( #249, #47, #169 ), #300 ) ;
#177 = DIRECTION ( 'NONE',  ( 3.491481338843133355E-15, -1.224646799147353207E-16, 1.000000000000000000 ) ) ;
#178 = DIRECTION ( 'NONE',  ( 0.0000000000000000000, 1.000000000000000000, 0.0000000000000000000 ) ) ;
#179 = CARTESIAN_POINT ( 'NONE',  ( 6.405924284287273902E-14, -2.246895775456748746E-15, 18.34729635533384240 ) ) ;
#180 = EDGE_LOOP ( 'NONE', ( #14 ) ) ;
#181 = EDGE_LOOP ( 'NONE', ( #228 ) ) ;
#182 = CC_DESIGN_SECURITY_CLASSIFICATION ( #199, ( #140 ) ) ;
#183 = AXIS2_PLACEMENT_3D ( 'NONE', #102, #241, #149 ) ;
#184 = EDGE_CURVE ( 'NONE', #173, #173, #16, .T. ) ;
#185 = APPROVAL_ROLE ( '' ) ;
#186 = AXIS2_PLACEMENT_3D ( 'NONE', #135, #86, #270 ) ;
#187 = DATE_TIME_ROLE ( 'classification_date' ) ;
#188 = PERSON_AND_ORGANIZATION_ROLE ( 'classification_officer' ) ;
#189 = DATE_AND_TIME ( #213, #10 ) ;
#190 = APPROVAL_PERSON_ORGANIZATION ( #279, #222, #185 ) ;
#191 = EDGE_CURVE ( 'NONE', #287, #287, #217, .T. ) ;
#192 = CARTESIAN_POINT ( 'NONE',  ( 2.793185071074506684E-14, 7.311328940476547627E-33, 8.000000000000000000 ) ) ;
#193 = CARTESIAN_POINT ( 'NONE',  ( 1.745740669421566678E-13, 1.199999999999995515, 50.00000000000000000 ) ) ;
#194 = CARTESIAN_POINT ( 'NONE',  ( 1.745740669421566678E-13, 8.998558695971067645E-33, 50.00000000000000000 ) ) ;
#195 = DIRECTION ( 'NONE',  ( 0.0000000000000000000, 0.0000000000000000000, 1.000000000000000000 ) ) ;
#196 = CIRCLE ( 'NONE', #51, 0.8250000000000015099 ) ;
#197 = PLANE ( 'NONE',  #209 ) ;
#198 = DIRECTION ( 'NONE',  ( -3.491481338843133355E-15, 1.224646799147353207E-16, -1.000000000000000000 ) ) ;
#199 = SECURITY_CLASSIFICATION ( '', '', #74 ) ;
#200 = PLANE ( 'NONE',  #274 ) ;
#201 = AXIS2_PLACEMENT_3D ( 'NONE', #294, #85, #178 ) ;
#202 = FACE_OUTER_BOUND ( 'NONE', #295, .T. ) ;
#203 = DIRECTION ( 'NONE',  ( 0.0000000000000000000, 1.000000000000000000, 0.0000000000000000000 ) ) ;
#204 = EDGE_CURVE ( 'NONE', #76, #76, #208, .T. ) ;
#205 = ORIENTED_EDGE ( 'NONE', *, *, #292, .F. ) ;
#206 = EDGE_LOOP ( 'NONE', ( #272 ) ) ;
#207 = CC_DESIGN_DATE_AND_TIME_ASSIGNMENT ( #96, #93, ( #94 ) ) ;
#208 = CIRCLE ( 'NONE', #260, 1.200000000000001732 ) ;
#209 = AXIS2_PLACEMENT_3D ( 'NONE', #194, #34, #99 ) ;
#210 = PERSON_AND_ORGANIZATION_ROLE ( 'design_owner' ) ;
#211 = DIRECTION ( 'NONE',  ( 4.275831445896959482E-31, 1.000000000000000000, 1.224646799147353207E-16 ) ) ;
#212 = PERSON ( 'UNSPECIFIED', 'UNSPECIFIED', 'UNSPECIFIED', ('UNSPECIFIED'), ('UNSPECIFIED'), ('UNSPECIFIED') ) ;
#213 = CALENDAR_DATE ( 2021, 1, 12 ) ;
#214 = CARTESIAN_POINT ( 'NONE',  ( 7.682338705364703204E-14, -2.694601686918367072E-15, 22.00309255529393226 ) ) ;
#215 = CARTESIAN_POINT ( 'NONE',  ( 2.883896417162831814E-14, 0.8249999999999992895, 8.259807621135335509 ) ) ;
#216 = CYLINDRICAL_SURFACE ( 'NONE', #226, 0.9750000000000001998 ) ;
#217 = CIRCLE ( 'NONE', #21, 0.9750000000000006439 ) ;
#218 = FACE_BOUND ( 'NONE', #180, .T. ) ;
#219 = FACE_OUTER_BOUND ( 'NONE', #18, .T. ) ;
#220 = ORIENTED_EDGE ( 'NONE', *, *, #191, .F. ) ;
#221 = ORIENTED_EDGE ( 'NONE', *, *, #42, .T. ) ;
#222 = APPROVAL ( #160, 'UNSPECIFIED' ) ;
#223 = AXIS2_PLACEMENT_3D ( 'NONE', #238, #12, #107 ) ;
#224 = EDGE_LOOP ( 'NONE', ( #235 ) ) ;
#225 = DIRECTION ( 'NONE',  ( -3.491481338843133355E-15, 1.224646799147353207E-16, -1.000000000000000000 ) ) ;
#226 = AXIS2_PLACEMENT_3D ( 'NONE', #170, #259, #129 ) ;
#227 = ORIENTED_EDGE ( 'NONE', *, *, #29, .T. ) ;
#228 = ORIENTED_EDGE ( 'NONE', *, *, #50, .F. ) ;
#229 = AXIS2_PLACEMENT_3D ( 'NONE', #289, #6, #261 ) ;
#230 = COORDINATED_UNIVERSAL_TIME_OFFSET ( 1, 0, .AHEAD. ) ;
#231 = APPROVAL_PERSON_ORGANIZATION ( #20, #19, #22 ) ;
#232 = AXIS2_PLACEMENT_3D ( 'NONE', #214, #37, #77 ) ;
#233 = EDGE_CURVE ( 'NONE', #55, #55, #101, .T. ) ;
#234 = PERSON_AND_ORGANIZATION ( #212, #273 ) ;
#235 = ORIENTED_EDGE ( 'NONE', *, *, #233, .F. ) ;
#236 = FACE_OUTER_BOUND ( 'NONE', #30, .T. ) ;
#237 = UNCERTAINTY_MEASURE_WITH_UNIT (LENGTH_MEASURE( 1.000000000000000082E-05 ), #57, 'distance_accuracy_value', 'NONE');
#238 = CARTESIAN_POINT ( 'NONE',  ( 1.735266225405037467E-13, -6.086494591762345225E-15, 49.70000000000000284 ) ) ;
#239 = CC_DESIGN_PERSON_AND_ORGANIZATION_ASSIGNMENT ( #143, #303, ( #94 ) ) ;
#240 = DIRECTION ( 'NONE',  ( 3.491481338843133355E-15, -1.224646799147353207E-16, 1.000000000000000000 ) ) ;
#241 = DIRECTION ( 'NONE',  ( -3.491481338843133355E-15, 1.224646799147353207E-16, -1.000000000000000000 ) ) ;
#242 = CARTESIAN_POINT ( 'NONE',  ( 3.785471652766322713E-31, 0.8306624327025950993, 1.084202172485504434E-16 ) ) ;
#243 = APPROVAL_PERSON_ORGANIZATION ( #1, #163, #277 ) ;
#244 = PRODUCT_DEFINITION_SHAPE ( 'NONE', 'NONE',  #94 ) ;
#245 = CARTESIAN_POINT ( 'NONE',  ( 2.793185071074506684E-14, -9.797174393178825657E-16, 8.000000000000000000 ) ) ;
#246 = ADVANCED_FACE ( 'NONE', ( #54, #202 ), #41, .T. ) ;
#247 = ORIENTED_EDGE ( 'NONE', *, *, #292, .T. ) ;
#248 = CONICAL_SURFACE ( 'NONE', #286, 0.8250000000000002887, 0.5235987755982941527 ) ;
#249 = MANIFOLD_SOLID_BREP ( 'Corps-Déplacer/Copier1[1]', #52 ) ;
#250 = DIRECTION ( 'NONE',  ( -3.491481338843133355E-15, 1.224646799147353207E-16, -1.000000000000000000 ) ) ;
#251 = ORIENTED_EDGE ( 'NONE', *, *, #204, .F. ) ;
#252 = CARTESIAN_POINT ( 'NONE',  ( 2.883896417162831814E-14, -1.011534696479630145E-15, 8.259807621135335509 ) ) ;
#253 = AXIS2_PLACEMENT_3D ( 'NONE', #179, #271, #203 ) ;
#254 = ADVANCED_FACE ( 'NONE', ( #63, #154 ), #248, .T. ) ;
#255 = APPROVAL_DATE_TIME ( #189, #19 ) ;
#256 = PERSON_AND_ORGANIZATION_ROLE ( 'creator' ) ;
#257 = LOCAL_TIME ( 15, 3, 27.00000000000000000, #164 ) ;
#258 = EDGE_LOOP ( 'NONE', ( #205 ) ) ;
#259 = DIRECTION ( 'NONE',  ( -3.491481338843133355E-15, 1.224646799147353207E-16, -1.000000000000000000 ) ) ;
#260 = AXIS2_PLACEMENT_3D ( 'NONE', #75, #61, #151 ) ;
#261 = DIRECTION ( 'NONE',  ( 3.950625526948177838E-31, 1.000000000000000000, 1.112002228190261445E-16 ) ) ;
#262 = CARTESIAN_POINT ( 'NONE',  ( 2.336991020913004733E-32, -8.197061062756550695E-34, 6.693408310431763127E-18 ) ) ;
#263 = AXIS2_PLACEMENT_3D ( 'NONE', #17, #250, #111 ) ;
#264 = FACE_OUTER_BOUND ( 'NONE', #224, .T. ) ;
#265 = CARTESIAN_POINT ( 'NONE',  ( 2.793185071074506684E-14, 0.9749999999999996447, 8.000000000000000000 ) ) ;
#266 = DIRECTION ( 'NONE',  ( -3.491481338843133355E-15, 1.224646799147353207E-16, -1.000000000000000000 ) ) ;
#267 = VERTEX_POINT ( 'NONE', #35 ) ;
#268 = DIRECTION ( 'NONE',  ( -3.950625526948177838E-31, -1.000000000000000000, -1.112002228190261445E-16 ) ) ;
#269 = EDGE_LOOP ( 'NONE', ( #221 ) ) ;
#270 = DIRECTION ( 'NONE',  ( -4.275831445896958607E-31, -1.000000000000000000, -1.224646799147353207E-16 ) ) ;
#271 = DIRECTION ( 'NONE',  ( -3.491481338843133355E-15, 1.224646799147353207E-16, -1.000000000000000000 ) ) ;
#272 = ORIENTED_EDGE ( 'NONE', *, *, #233, .T. ) ;
#273 = ORGANIZATION ( 'UNSPECIFIED', 'UNSPECIFIED', '' ) ;
#274 = AXIS2_PLACEMENT_3D ( 'NONE', #192, #290, #82 ) ;
#275 = PRODUCT ( '200682', '200682', '', ( #126 ) ) ;
#276 = CC_DESIGN_PERSON_AND_ORGANIZATION_ASSIGNMENT ( #28, #210, ( #275 ) ) ;
#277 = APPROVAL_ROLE ( '' ) ;
#278 = CALENDAR_DATE ( 2021, 1, 12 ) ;
#279 = PERSON_AND_ORGANIZATION ( #212, #273 ) ;
#280 = ADVANCED_FACE ( 'NONE', ( #31, #122 ), #4, .T. ) ;
#281 = CALENDAR_DATE ( 2021, 1, 12 ) ;
#282 = EDGE_LOOP ( 'NONE', ( #72 ) ) ;
#283 = APPROVAL_STATUS ( 'not_yet_approved' ) ;
#284 = FACE_BOUND ( 'NONE', #43, .T. ) ;
#285 = CARTESIAN_POINT ( 'NONE',  ( 6.284666409917640040E-14, -2.168404344971008868E-15, 18.00000000000000000 ) ) ;
#286 = AXIS2_PLACEMENT_3D ( 'NONE', #125, #27, #145 ) ;
#287 = VERTEX_POINT ( 'NONE', #265 ) ;
#288 = FACE_OUTER_BOUND ( 'NONE', #258, .T. ) ;
#289 = CARTESIAN_POINT ( 'NONE',  ( 8.728703347107833388E-16, -3.061616997868383018E-17, 0.2500000000000000000 ) ) ;
#290 = DIRECTION ( 'NONE',  ( 3.491481338843133355E-15, -1.224646799147353207E-16, 1.000000000000000000 ) ) ;
#291 = CARTESIAN_POINT ( 'NONE',  ( 6.405924284287273902E-14, 0.8553844939755794741, 18.34729635533384240 ) ) ;
#292 = EDGE_CURVE ( 'NONE', #171, #171, #196, .T. ) ;
#293 = DIRECTION ( 'NONE',  ( 4.275831445896958607E-31, 1.000000000000000000, 1.224646799147353207E-16 ) ) ;
#294 = CARTESIAN_POINT ( 'NONE',  ( 7.682338705364703204E-14, -2.694601686918367072E-15, 22.00309255529393226 ) ) ;
#295 = EDGE_LOOP ( 'NONE', ( #132 ) ) ;
#296 = CYLINDRICAL_SURFACE ( 'NONE', #263, 0.8250000000000008438 ) ;
#297 = DIRECTION ( 'NONE',  ( 0.0000000000000000000, 1.000000000000000000, 0.0000000000000000000 ) ) ;
#298 = LOCAL_TIME ( 15, 3, 27.00000000000000000, #142 ) ;
#299 = EDGE_CURVE ( 'NONE', #78, #78, #53, .T. ) ;
#300 =( GEOMETRIC_REPRESENTATION_CONTEXT ( 3 ) GLOBAL_UNCERTAINTY_ASSIGNED_CONTEXT ( ( #237 ) ) GLOBAL_UNIT_ASSIGNED_CONTEXT ( ( #57, #8, #62 ) ) REPRESENTATION_CONTEXT ( 'NONE', 'WORKASPACE' ) );
#301 = DATE_AND_TIME ( #281, #23 ) ;
#302 = TOROIDAL_SURFACE ( 'NONE', #81, 2.825000000000001510, 2.000000000000000444 ) ;
#303 = PERSON_AND_ORGANIZATION_ROLE ( 'creator' ) ;
ENDSEC;
END-ISO-10303-21;
