ISO-10303-21;
HEADER;
FILE_DESCRIPTION (( 'STEP AP203' ),
    '1' );
FILE_NAME ('200661.step',
    '2021-12-02T08:11:02',
    ( '' ),
    ( '' ),
    'SwSTEP 2.0',
    'SolidWorks 2019',
    '' );
FILE_SCHEMA (( 'CONFIG_CONTROL_DESIGN' ));
ENDSEC;

DATA;
#1 = CARTESIAN_POINT ( 'NONE',  ( 1.285703843380544537E-30, -4.509642021942294612E-32, 3.682402162878376686E-16 ) ) ;
#2 = APPROVAL_PERSON_ORGANIZATION ( #33, #204, #37 ) ;
#3 = DIRECTION ( 'NONE',  ( -4.275831445896958607E-31, -1.000000000000000000, -1.224646799147353207E-16 ) ) ;
#4 = CARTESIAN_POINT ( 'NONE',  ( 6.633814543801952113E-14, 3.756898255567949531E-32, 19.00000000000000000 ) ) ;
#5 = FACE_OUTER_BOUND ( 'NONE', #229, .T. ) ;
#6 = DIRECTION ( 'NONE',  ( -3.491481338843133355E-15, 1.224646799147353207E-16, -1.000000000000000000 ) ) ;
#7 = TOROIDAL_SURFACE ( 'NONE', #170, 6.750000000000007994, 2.000000000000001776 ) ;
#8 = FACE_OUTER_BOUND ( 'NONE', #116, .T. ) ;
#9 = ORIENTED_EDGE ( 'NONE', *, *, #156, .F. ) ;
#10 = EDGE_CURVE ( 'NONE', #129, #129, #85, .T. ) ;
#11 = APPROVAL_DATE_TIME ( #182, #132 ) ;
#12 = DIRECTION ( 'NONE',  ( 4.275831445896959482E-31, 1.000000000000000000, 1.224646799147353207E-16 ) ) ;
#13 = APPROVAL_DATE_TIME ( #235, #20 ) ;
#14 = EDGE_LOOP ( 'NONE', ( #188 ) ) ;
#15 = AXIS2_PLACEMENT_3D ( 'NONE', #26, #115, #12 ) ;
#16 = CALENDAR_DATE ( 2021, 2, 12 ) ;
#17 = EDGE_LOOP ( 'NONE', ( #281 ) ) ;
#18 = AXIS2_PLACEMENT_3D ( 'NONE', #27, #271, #160 ) ;
#19 = CARTESIAN_POINT ( 'NONE',  ( 6.633814543801952113E-14, 5.009999999999997122, 19.00000000000000000 ) ) ;
#20 = APPROVAL ( #55, 'UNSPECIFIED' ) ;
#21 = CARTESIAN_POINT ( 'NONE',  ( 6.791047543688388649E-14, 4.749999999999989342, 19.45033320996792980 ) ) ;
#22 = DIRECTION ( 'NONE',  ( 4.275831445896958607E-31, 1.000000000000000000, 1.224646799147353207E-16 ) ) ;
#23 = APPLICATION_CONTEXT ( 'configuration controlled 3d designs of mechanical parts and assemblies' ) ;
#24 = EDGE_CURVE ( 'NONE', #195, #195, #179, .T. ) ;
#25 = CARTESIAN_POINT ( 'NONE',  ( 6.633814543801952113E-14, -2.326828918379970970E-15, 19.00000000000000000 ) ) ;
#26 = CARTESIAN_POINT ( 'NONE',  ( 0.0000000000000000000, 0.0000000000000000000, 0.0000000000000000000 ) ) ;
#27 = CARTESIAN_POINT ( 'NONE',  ( 6.791047543688388649E-14, -2.381978830793668931E-15, 19.45033320996792980 ) ) ;
#28 = EDGE_LOOP ( 'NONE', ( #147 ) ) ;
#29 = PRODUCT_DEFINITION ( 'UNKNOWN', '', #126, #249 ) ;
#30 = CC_DESIGN_APPROVAL ( #132, ( #29 ) ) ;
#31 = EDGE_CURVE ( 'NONE', #65, #65, #92, .T. ) ;
#32 = EDGE_LOOP ( 'NONE', ( #61 ) ) ;
#33 = PERSON_AND_ORGANIZATION ( #239, #91 ) ;
#34 = COORDINATED_UNIVERSAL_TIME_OFFSET ( 1, 0, .AHEAD. ) ;
#35 = FACE_OUTER_BOUND ( 'NONE', #28, .T. ) ;
#36 = APPROVAL_STATUS ( 'not_yet_approved' ) ;
#37 = APPROVAL_ROLE ( '' ) ;
#38 = DIRECTION ( 'NONE',  ( 4.275831445896958607E-31, 1.000000000000000000, 1.224646799147353207E-16 ) ) ;
#39 = EDGE_LOOP ( 'NONE', ( #67 ) ) ;
#40 = AXIS2_PLACEMENT_3D ( 'NONE', #272, #155, #270 ) ;
#41 = PERSON_AND_ORGANIZATION_ROLE ( 'design_owner' ) ;
#42 = ORIENTED_EDGE ( 'NONE', *, *, #24, .T. ) ;
#43 =( NAMED_UNIT ( * ) SI_UNIT ( $, .STERADIAN. ) SOLID_ANGLE_UNIT ( ) );
#44 = CARTESIAN_POINT ( 'NONE',  ( 4.542565983319587431E-30, 4.610000000000001208, 1.301042606982605321E-15 ) ) ;
#45 = AXIS2_PLACEMENT_3D ( 'NONE', #242, #198, #22 ) ;
#46 = CARTESIAN_POINT ( 'NONE',  ( 0.0000000000000000000, 0.0000000000000000000, 0.0000000000000000000 ) ) ;
#47 = DIRECTION ( 'NONE',  ( -3.491481338843133355E-15, 1.224646799147353207E-16, -1.000000000000000000 ) ) ;
#48 = DIRECTION ( 'NONE',  ( 3.491481338843133355E-15, -1.224646799147353207E-16, 1.000000000000000000 ) ) ;
#49 = DIRECTION ( 'NONE',  ( 0.0000000000000000000, 1.000000000000000000, 0.0000000000000000000 ) ) ;
#50 = FACE_BOUND ( 'NONE', #98, .T. ) ;
#51 = EDGE_LOOP ( 'NONE', ( #72 ) ) ;
#52 = FACE_OUTER_BOUND ( 'NONE', #51, .T. ) ;
#53 = AXIS2_PLACEMENT_3D ( 'NONE', #46, #222, #152 ) ;
#54 = DIRECTION ( 'NONE',  ( 0.0000000000000000000, 1.000000000000000000, 0.0000000000000000000 ) ) ;
#55 = APPROVAL_STATUS ( 'not_yet_approved' ) ;
#56 = CARTESIAN_POINT ( 'NONE',  ( 2.571407686761089073E-30, -9.019284043884589224E-32, 7.364804325756753372E-16 ) ) ;
#57 = ADVANCED_FACE ( 'NONE', ( #273, #142 ), #163, .T. ) ;
#58 = CC_DESIGN_APPROVAL ( #20, ( #280 ) ) ;
#59 = PERSON_AND_ORGANIZATION_ROLE ( 'classification_officer' ) ;
#60 = FACE_OUTER_BOUND ( 'NONE', #14, .T. ) ;
#61 = ORIENTED_EDGE ( 'NONE', *, *, #193, .F. ) ;
#62 = VERTEX_POINT ( 'NONE', #194 ) ;
#63 = CIRCLE ( 'NONE', #167, 5.000000000000007994 ) ;
#64 = VERTEX_POINT ( 'NONE', #19 ) ;
#65 = VERTEX_POINT ( 'NONE', #21 ) ;
#66 = CARTESIAN_POINT ( 'NONE',  ( 3.071394887490858903E-13, -1.077300306903406976E-14, 87.96824583655184426 ) ) ;
#67 = ORIENTED_EDGE ( 'NONE', *, *, #24, .F. ) ;
#68 = DIRECTION ( 'NONE',  ( 0.0000000000000000000, 1.000000000000000000, 0.0000000000000000000 ) ) ;
#69 = CC_DESIGN_PERSON_AND_ORGANIZATION_ASSIGNMENT ( #78, #59, ( #280 ) ) ;
#70 = FACE_OUTER_BOUND ( 'NONE', #191, .T. ) ;
#71 = CARTESIAN_POINT ( 'NONE',  ( 4.608755367272936534E-13, -1.616533774874506480E-14, 132.0000000000000000 ) ) ;
#72 = ORIENTED_EDGE ( 'NONE', *, *, #10, .F. ) ;
#73 = CC_DESIGN_APPROVAL ( #204, ( #126 ) ) ;
#74 = SECURITY_CLASSIFICATION_LEVEL ( 'unclassified' ) ;
#75 = DIRECTION ( 'NONE',  ( -3.491481338843133355E-15, 1.224646799147353207E-16, -1.000000000000000000 ) ) ;
#76 = ADVANCED_FACE ( 'NONE', ( #232, #70 ), #211, .T. ) ;
#77 = DATE_TIME_ROLE ( 'creation_date' ) ;
#78 = PERSON_AND_ORGANIZATION ( #239, #91 ) ;
#79 = CC_DESIGN_DATE_AND_TIME_ASSIGNMENT ( #274, #77, ( #29 ) ) ;
#80 = AXIS2_PLACEMENT_3D ( 'NONE', #4, #48, #3 ) ;
#81 = ORIENTED_EDGE ( 'NONE', *, *, #121, .T. ) ;
#82 =( NAMED_UNIT ( * ) PLANE_ANGLE_UNIT ( ) SI_UNIT ( $, .RADIAN. ) );
#83 = FACE_OUTER_BOUND ( 'NONE', #259, .T. ) ;
#84 = CONICAL_SURFACE ( 'NONE', #251, 5.009999999999997122, 0.7853981633974447263 ) ;
#85 = CIRCLE ( 'NONE', #40, 5.009999999999999787 ) ;
#86 = ADVANCED_FACE ( 'NONE', ( #202, #159 ), #183, .T. ) ;
#87 = DIRECTION ( 'NONE',  ( -3.491481338843133355E-15, 1.224646799147353207E-16, -1.000000000000000000 ) ) ;
#88 = CC_DESIGN_DATE_AND_TIME_ASSIGNMENT ( #214, #165, ( #280 ) ) ;
#89 = CARTESIAN_POINT ( 'NONE',  ( 3.037588764793525640E-13, -1.065442715258197209E-14, 87.00000000000000000 ) ) ;
#90 = FACE_OUTER_BOUND ( 'NONE', #279, .T. ) ;
#91 = ORGANIZATION ( 'UNSPECIFIED', 'UNSPECIFIED', '' ) ;
#92 = CIRCLE ( 'NONE', #236, 4.749999999999992006 ) ;
#93 = EDGE_LOOP ( 'NONE', ( #140 ) ) ;
#94 = PERSON_AND_ORGANIZATION_ROLE ( 'creator' ) ;
#95 = DIRECTION ( 'NONE',  ( -3.491481338843133355E-15, 1.224646799147353207E-16, -1.000000000000000000 ) ) ;
#96 = ADVANCED_FACE ( 'NONE', ( #35, #5 ), #7, .F. ) ;
#97 = CALENDAR_DATE ( 2021, 2, 12 ) ;
#98 = EDGE_LOOP ( 'NONE', ( #100 ) ) ;
#99 = APPROVAL_ROLE ( '' ) ;
#100 = ORIENTED_EDGE ( 'NONE', *, *, #31, .T. ) ;
#101 = CC_DESIGN_PERSON_AND_ORGANIZATION_ASSIGNMENT ( #233, #119, ( #126 ) ) ;
#102 = APPROVAL_STATUS ( 'not_yet_approved' ) ;
#103 = ADVANCED_FACE ( 'NONE', ( #90 ), #113, .F. ) ;
#104 = LOCAL_TIME ( 9, 11, 2.000000000000000000, #34 ) ;
#105 = CIRCLE ( 'NONE', #175, 4.000000000000007994 ) ;
#106 = PLANE ( 'NONE',  #174 ) ;
#107 = EDGE_LOOP ( 'NONE', ( #118 ) ) ;
#108 = EDGE_CURVE ( 'NONE', #173, #173, #244, .T. ) ;
#109 = APPLICATION_PROTOCOL_DEFINITION ( 'international standard', 'config_control_design', 1994, #23 ) ;
#110 = CARTESIAN_POINT ( 'NONE',  ( 4.608755367272936534E-13, 4.999999999999991118, 132.0000000000000000 ) ) ;
#111 = APPROVAL_PERSON_ORGANIZATION ( #212, #20, #144 ) ;
#112 = AXIS2_PLACEMENT_3D ( 'NONE', #275, #75, #254 ) ;
#113 = PLANE ( 'NONE',  #80 ) ;
#114 = CARTESIAN_POINT ( 'NONE',  ( 4.643670180661366731E-13, -1.628780242865979995E-14, 133.0000000000000000 ) ) ;
#115 = DIRECTION ( 'NONE',  ( -3.491481338843133355E-15, 1.224646799147353207E-16, -1.000000000000000000 ) ) ;
#116 = EDGE_LOOP ( 'NONE', ( #9 ) ) ;
#117 = AXIS2_PLACEMENT_3D ( 'NONE', #201, #47, #246 ) ;
#118 = ORIENTED_EDGE ( 'NONE', *, *, #108, .F. ) ;
#119 = PERSON_AND_ORGANIZATION_ROLE ( 'creator' ) ;
#120 = DIRECTION ( 'NONE',  ( 4.275831445896958607E-31, 1.000000000000000000, 1.224646799147353207E-16 ) ) ;
#121 = EDGE_CURVE ( 'NONE', #219, #219, #154, .T. ) ;
#122 = CALENDAR_DATE ( 2021, 2, 12 ) ;
#123 = EDGE_LOOP ( 'NONE', ( #137 ) ) ;
#124 = DATE_AND_TIME ( #166, #162 ) ;
#125 = ORIENTED_EDGE ( 'NONE', *, *, #156, .T. ) ;
#126 = PRODUCT_DEFINITION_FORMATION_WITH_SPECIFIED_SOURCE ( 'ANY', '', #268, .NOT_KNOWN. ) ;
#127 = AXIS2_PLACEMENT_3D ( 'NONE', #25, #269, #68 ) ;
#128 = APPLICATION_PROTOCOL_DEFINITION ( 'international standard', 'config_control_design', 1994, #153 ) ;
#129 = VERTEX_POINT ( 'NONE', #243 ) ;
#130 = CARTESIAN_POINT ( 'NONE',  ( 3.037588764793525640E-13, 4.749999999999997335, 87.00000000000000000 ) ) ;
#131 = CLOSED_SHELL ( 'NONE', ( #216, #213, #224, #187 ) ) ;
#132 = APPROVAL ( #36, 'UNSPECIFIED' ) ;
#133 = FACE_BOUND ( 'NONE', #39, .T. ) ;
#134 = CARTESIAN_POINT ( 'NONE',  ( 4.643670180661366731E-13, 2.999519565323696057E-32, 133.0000000000000000 ) ) ;
#135 = DIRECTION ( 'NONE',  ( -3.491481338843133355E-15, 1.224646799147353207E-16, -1.000000000000000000 ) ) ;
#136 = DIRECTION ( 'NONE',  ( -4.275831445896958607E-31, -1.000000000000000000, -1.224646799147353207E-16 ) ) ;
#137 = ORIENTED_EDGE ( 'NONE', *, *, #193, .T. ) ;
#138 =( GEOMETRIC_REPRESENTATION_CONTEXT ( 3 ) GLOBAL_UNCERTAINTY_ASSIGNED_CONTEXT ( ( #186 ) ) GLOBAL_UNIT_ASSIGNED_CONTEXT ( ( #171, #82, #43 ) ) REPRESENTATION_CONTEXT ( 'NONE', 'WORKASPACE' ) );
#139 = AXIS2_PLACEMENT_3D ( 'NONE', #161, #95, #54 ) ;
#140 = ORIENTED_EDGE ( 'NONE', *, *, #176, .F. ) ;
#141 = COORDINATED_UNIVERSAL_TIME_OFFSET ( 1, 0, .AHEAD. ) ;
#142 = FACE_BOUND ( 'NONE', #178, .T. ) ;
#143 = PRODUCT_RELATED_PRODUCT_CATEGORY ( 'detail', '', ( #268 ) ) ;
#144 = APPROVAL_ROLE ( '' ) ;
#145 = PERSON_AND_ORGANIZATION_ROLE ( 'design_supplier' ) ;
#146 = EDGE_LOOP ( 'NONE', ( #234 ) ) ;
#147 = ORIENTED_EDGE ( 'NONE', *, *, #121, .F. ) ;
#148 = DIRECTION ( 'NONE',  ( 3.491481338843133355E-15, -1.224646799147353207E-16, 1.000000000000000000 ) ) ;
#149 = AXIS2_PLACEMENT_3D ( 'NONE', #66, #6, #228 ) ;
#150 = EDGE_CURVE ( 'NONE', #263, #263, #105, .T. ) ;
#151 = DIRECTION ( 'NONE',  ( -4.228588700251418780E-31, -1.000000000000000000, -1.190241905922211227E-16 ) ) ;
#152 = DIRECTION ( 'NONE',  ( 1.000000000000000000, 0.0000000000000000000, 0.0000000000000000000 ) ) ;
#153 = APPLICATION_CONTEXT ( 'configuration controlled 3d designs of mechanical parts and assemblies' ) ;
#154 = CIRCLE ( 'NONE', #192, 4.750000000000007994 ) ;
#155 = DIRECTION ( 'NONE',  ( -3.491481338843133355E-15, 1.224646799147353207E-16, -1.000000000000000000 ) ) ;
#156 = EDGE_CURVE ( 'NONE', #64, #64, #252, .T. ) ;
#157 = DIRECTION ( 'NONE',  ( 3.491481338843133355E-15, -1.224646799147353207E-16, 1.000000000000000000 ) ) ;
#158 = FACE_OUTER_BOUND ( 'NONE', #146, .T. ) ;
#159 = FACE_OUTER_BOUND ( 'NONE', #123, .T. ) ;
#160 = DIRECTION ( 'NONE',  ( 0.0000000000000000000, 1.000000000000000000, 0.0000000000000000000 ) ) ;
#161 = CARTESIAN_POINT ( 'NONE',  ( 4.643670180661366731E-13, -1.628780242865979995E-14, 133.0000000000000000 ) ) ;
#162 = LOCAL_TIME ( 9, 11, 2.000000000000000000, #141 ) ;
#163 = CONICAL_SURFACE ( 'NONE', #139, 4.000000000000007994, 0.7853981633974479459 ) ;
#164 = COORDINATED_UNIVERSAL_TIME_OFFSET ( 1, 0, .AHEAD. ) ;
#165 = DATE_TIME_ROLE ( 'classification_date' ) ;
#166 = CALENDAR_DATE ( 2021, 2, 12 ) ;
#167 = AXIS2_PLACEMENT_3D ( 'NONE', #71, #230, #180 ) ;
#168 = ADVANCED_FACE ( 'NONE', ( #158 ), #225, .F. ) ;
#169 = DIRECTION ( 'NONE',  ( 3.491481338843133355E-15, -1.224646799147353207E-16, 1.000000000000000000 ) ) ;
#170 = AXIS2_PLACEMENT_3D ( 'NONE', #248, #190, #38 ) ;
#171 =( LENGTH_UNIT ( ) NAMED_UNIT ( * ) SI_UNIT ( .MILLI., .METRE. ) );
#172 = CC_DESIGN_PERSON_AND_ORGANIZATION_ASSIGNMENT ( #241, #41, ( #268 ) ) ;
#173 = VERTEX_POINT ( 'NONE', #283 ) ;
#174 = AXIS2_PLACEMENT_3D ( 'NONE', #1, #169, #262 ) ;
#175 = AXIS2_PLACEMENT_3D ( 'NONE', #114, #245, #226 ) ;
#176 = EDGE_CURVE ( 'NONE', #62, #62, #277, .T. ) ;
#177 = DIRECTION ( 'NONE',  ( 0.0000000000000000000, 1.000000000000000000, 0.0000000000000000000 ) ) ;
#178 = EDGE_LOOP ( 'NONE', ( #220 ) ) ;
#179 = CIRCLE ( 'NONE', #218, 4.610000000000001208 ) ;
#180 = DIRECTION ( 'NONE',  ( 0.0000000000000000000, 1.000000000000000000, 0.0000000000000000000 ) ) ;
#181 = CARTESIAN_POINT ( 'NONE',  ( 6.791047543688388649E-14, -2.381978830793668931E-15, 19.45033320996792980 ) ) ;
#182 = DATE_AND_TIME ( #122, #104 ) ;
#183 = CYLINDRICAL_SURFACE ( 'NONE', #112, 5.000000000000004441 ) ;
#184 = AXIS2_PLACEMENT_3D ( 'NONE', #203, #157, #136 ) ;
#185 = SHAPE_DEFINITION_REPRESENTATION ( #227, #197 ) ;
#186 = UNCERTAINTY_MEASURE_WITH_UNIT (LENGTH_MEASURE( 1.000000000000000082E-05 ), #171, 'distance_accuracy_value', 'NONE');
#187 = ADVANCED_FACE ( 'NONE', ( #52 ), #208, .T. ) ;
#188 = ORIENTED_EDGE ( 'NONE', *, *, #108, .T. ) ;
#189 = PERSON_AND_ORGANIZATION ( #239, #91 ) ;
#190 = DIRECTION ( 'NONE',  ( -3.491481338843133355E-15, 1.224646799147353207E-16, -1.000000000000000000 ) ) ;
#191 = EDGE_LOOP ( 'NONE', ( #81 ) ) ;
#192 = AXIS2_PLACEMENT_3D ( 'NONE', #89, #135, #177 ) ;
#193 = EDGE_CURVE ( 'NONE', #196, #196, #63, .T. ) ;
#194 = CARTESIAN_POINT ( 'NONE',  ( 3.071394887490858903E-13, 4.999999999999990230, 87.96824583655184426 ) ) ;
#195 = VERTEX_POINT ( 'NONE', #44 ) ;
#196 = VERTEX_POINT ( 'NONE', #110 ) ;
#197 = ADVANCED_BREP_SHAPE_REPRESENTATION ( '200661', ( #260, #258, #53 ), #138 ) ;
#198 = DIRECTION ( 'NONE',  ( -3.491481338843133355E-15, 1.224646799147353207E-16, -1.000000000000000000 ) ) ;
#199 = AXIS2_PLACEMENT_3D ( 'NONE', #134, #87, #267 ) ;
#200 = ADVANCED_FACE ( 'NONE', ( #8, #50 ), #266, .T. ) ;
#201 = CARTESIAN_POINT ( 'NONE',  ( 1.396592535537251370E-15, -4.898587196589405680E-17, 0.3999999999999994116 ) ) ;
#202 = FACE_OUTER_BOUND ( 'NONE', #93, .T. ) ;
#203 = CARTESIAN_POINT ( 'NONE',  ( 6.633814543801952113E-14, 3.756898255567949531E-32, 19.00000000000000000 ) ) ;
#204 = APPROVAL ( #102, 'UNSPECIFIED' ) ;
#205 = DIRECTION ( 'NONE',  ( -3.491481338843133355E-15, 1.224646799147353207E-16, -1.000000000000000000 ) ) ;
#206 = LOCAL_TIME ( 9, 11, 2.000000000000000000, #278 ) ;
#207 = CLOSED_SHELL ( 'NONE', ( #103, #200, #76, #96, #86, #57, #168 ) ) ;
#208 = PLANE ( 'NONE',  #184 ) ;
#209 = ORIENTED_EDGE ( 'NONE', *, *, #10, .T. ) ;
#210 = PERSON_AND_ORGANIZATION ( #239, #91 ) ;
#211 = CYLINDRICAL_SURFACE ( 'NONE', #15, 4.750000000000000000 ) ;
#212 = PERSON_AND_ORGANIZATION ( #239, #91 ) ;
#213 = ADVANCED_FACE ( 'NONE', ( #133, #60 ), #84, .T. ) ;
#214 = DATE_AND_TIME ( #253, #240 ) ;
#215 = CC_DESIGN_PERSON_AND_ORGANIZATION_ASSIGNMENT ( #189, #145, ( #126 ) ) ;
#216 = ADVANCED_FACE ( 'NONE', ( #256 ), #106, .F. ) ;
#217 = LOCAL_TIME ( 9, 11, 2.000000000000000000, #237 ) ;
#218 = AXIS2_PLACEMENT_3D ( 'NONE', #56, #205, #120 ) ;
#219 = VERTEX_POINT ( 'NONE', #130 ) ;
#220 = ORIENTED_EDGE ( 'NONE', *, *, #150, .T. ) ;
#221 = CYLINDRICAL_SURFACE ( 'NONE', #45, 5.009999999999998899 ) ;
#222 = DIRECTION ( 'NONE',  ( 0.0000000000000000000, 0.0000000000000000000, 1.000000000000000000 ) ) ;
#223 = MECHANICAL_CONTEXT ( 'NONE', #23, 'mechanical' ) ;
#224 = ADVANCED_FACE ( 'NONE', ( #261, #83 ), #221, .T. ) ;
#225 = PLANE ( 'NONE',  #199 ) ;
#226 = DIRECTION ( 'NONE',  ( 0.0000000000000000000, 1.000000000000000000, 0.0000000000000000000 ) ) ;
#227 = PRODUCT_DEFINITION_SHAPE ( 'NONE', 'NONE',  #29 ) ;
#228 = DIRECTION ( 'NONE',  ( 0.0000000000000000000, 1.000000000000000000, 0.0000000000000000000 ) ) ;
#229 = EDGE_LOOP ( 'NONE', ( #238 ) ) ;
#230 = DIRECTION ( 'NONE',  ( -3.491481338843133355E-15, 1.224646799147353207E-16, -1.000000000000000000 ) ) ;
#231 = APPROVAL_PERSON_ORGANIZATION ( #282, #132, #99 ) ;
#232 = FACE_OUTER_BOUND ( 'NONE', #17, .T. ) ;
#233 = PERSON_AND_ORGANIZATION ( #239, #91 ) ;
#234 = ORIENTED_EDGE ( 'NONE', *, *, #150, .F. ) ;
#235 = DATE_AND_TIME ( #97, #206 ) ;
#236 = AXIS2_PLACEMENT_3D ( 'NONE', #181, #247, #49 ) ;
#237 = COORDINATED_UNIVERSAL_TIME_OFFSET ( 1, 0, .AHEAD. ) ;
#238 = ORIENTED_EDGE ( 'NONE', *, *, #176, .T. ) ;
#239 = PERSON ( 'UNSPECIFIED', 'UNSPECIFIED', 'UNSPECIFIED', ('UNSPECIFIED'), ('UNSPECIFIED'), ('UNSPECIFIED') ) ;
#240 = LOCAL_TIME ( 9, 11, 2.000000000000000000, #164 ) ;
#241 = PERSON_AND_ORGANIZATION ( #239, #91 ) ;
#242 = CARTESIAN_POINT ( 'NONE',  ( 0.0000000000000000000, 0.0000000000000000000, 0.0000000000000000000 ) ) ;
#243 = CARTESIAN_POINT ( 'NONE',  ( 6.633814543801952113E-14, 5.009999999999997122, 19.00000000000000000 ) ) ;
#244 = CIRCLE ( 'NONE', #117, 5.009999999999997122 ) ;
#245 = DIRECTION ( 'NONE',  ( -3.491481338843133355E-15, 1.224646799147353207E-16, -1.000000000000000000 ) ) ;
#246 = DIRECTION ( 'NONE',  ( 4.228588700251418780E-31, 1.000000000000000000, 1.190241905922211227E-16 ) ) ;
#247 = DIRECTION ( 'NONE',  ( -3.491481338843133355E-15, 1.224646799147353207E-16, -1.000000000000000000 ) ) ;
#248 = CARTESIAN_POINT ( 'NONE',  ( 3.037588764793525640E-13, -1.040834085586084257E-14, 87.00000000000000000 ) ) ;
#249 = DESIGN_CONTEXT ( 'detailed design', #153, 'design' ) ;
#250 = EDGE_LOOP ( 'NONE', ( #42 ) ) ;
#251 = AXIS2_PLACEMENT_3D ( 'NONE', #257, #148, #151 ) ;
#252 = CIRCLE ( 'NONE', #127, 5.009999999999999787 ) ;
#253 = CALENDAR_DATE ( 2021, 2, 12 ) ;
#254 = DIRECTION ( 'NONE',  ( 4.275831445896958607E-31, 1.000000000000000000, 1.224646799147353454E-16 ) ) ;
#255 = APPROVAL_DATE_TIME ( #124, #204 ) ;
#256 = FACE_OUTER_BOUND ( 'NONE', #250, .T. ) ;
#257 = CARTESIAN_POINT ( 'NONE',  ( 1.396592535537251370E-15, -4.898587196589405680E-17, 0.3999999999999994116 ) ) ;
#258 = MANIFOLD_SOLID_BREP ( 'Corps-Déplacer/Copier1[2]', #131 ) ;
#259 = EDGE_LOOP ( 'NONE', ( #209 ) ) ;
#260 = MANIFOLD_SOLID_BREP ( 'Corps-Déplacer/Copier1[1]', #207 ) ;
#261 = FACE_OUTER_BOUND ( 'NONE', #107, .T. ) ;
#262 = DIRECTION ( 'NONE',  ( -4.275831445896958607E-31, -1.000000000000000000, -1.224646799147353207E-16 ) ) ;
#263 = VERTEX_POINT ( 'NONE', #265 ) ;
#264 = CC_DESIGN_PERSON_AND_ORGANIZATION_ASSIGNMENT ( #210, #94, ( #29 ) ) ;
#265 = CARTESIAN_POINT ( 'NONE',  ( 4.643670180661366731E-13, 3.999999999999991562, 133.0000000000000000 ) ) ;
#266 = CONICAL_SURFACE ( 'NONE', #18, 4.749999999999992006, 0.5235987755982913772 ) ;
#267 = DIRECTION ( 'NONE',  ( 4.275831445896958607E-31, 1.000000000000000000, 1.224646799147353207E-16 ) ) ;
#268 = PRODUCT ( '200661', '200661', '', ( #223 ) ) ;
#269 = DIRECTION ( 'NONE',  ( -3.491481338843133355E-15, 1.224646799147353207E-16, -1.000000000000000000 ) ) ;
#270 = DIRECTION ( 'NONE',  ( 0.0000000000000000000, 1.000000000000000000, 0.0000000000000000000 ) ) ;
#271 = DIRECTION ( 'NONE',  ( -3.491481338843133355E-15, 1.224646799147353207E-16, -1.000000000000000000 ) ) ;
#272 = CARTESIAN_POINT ( 'NONE',  ( 6.633814543801952113E-14, -2.326828918379970970E-15, 19.00000000000000000 ) ) ;
#273 = FACE_OUTER_BOUND ( 'NONE', #32, .T. ) ;
#274 = DATE_AND_TIME ( #16, #217 ) ;
#275 = CARTESIAN_POINT ( 'NONE',  ( 0.0000000000000000000, 0.0000000000000000000, 0.0000000000000000000 ) ) ;
#276 = CC_DESIGN_SECURITY_CLASSIFICATION ( #280, ( #126 ) ) ;
#277 = CIRCLE ( 'NONE', #149, 5.000000000000000888 ) ;
#278 = COORDINATED_UNIVERSAL_TIME_OFFSET ( 1, 0, .AHEAD. ) ;
#279 = EDGE_LOOP ( 'NONE', ( #125 ) ) ;
#280 = SECURITY_CLASSIFICATION ( '', '', #74 ) ;
#281 = ORIENTED_EDGE ( 'NONE', *, *, #31, .F. ) ;
#282 = PERSON_AND_ORGANIZATION ( #239, #91 ) ;
#283 = CARTESIAN_POINT ( 'NONE',  ( 1.396592535537253539E-15, 5.009999999999997122, 0.4000000000000000222 ) ) ;
ENDSEC;
END-ISO-10303-21;
