ISO-10303-21;
HEADER;
FILE_DESCRIPTION (( 'STEP AP203' ),
    '1' );
FILE_NAME ('200648.step',
    '2021-12-02T08:51:06',
    ( '' ),
    ( '' ),
    'SwSTEP 2.0',
    'SolidWorks 2019',
    '' );
FILE_SCHEMA (( 'CONFIG_CONTROL_DESIGN' ));
ENDSEC;

DATA;
#1 = DIRECTION ( 'NONE',  ( -3.491481338843133355E-15, 1.224646799147353207E-16, -1.000000000000000000 ) ) ;
#2 = DATE_AND_TIME ( #197, #208 ) ;
#3 = DIRECTION ( 'NONE',  ( -3.491481338843133355E-15, 1.224646799147353207E-16, -1.000000000000000000 ) ) ;
#4 = VERTEX_POINT ( 'NONE', #183 ) ;
#5 = AXIS2_PLACEMENT_3D ( 'NONE', #170, #1, #218 ) ;
#6 = CIRCLE ( 'NONE', #119, 4.750000000000000888 ) ;
#7 = DIRECTION ( 'NONE',  ( -3.491481338843133355E-15, 1.224646799147353207E-16, -1.000000000000000000 ) ) ;
#8 = DIRECTION ( 'NONE',  ( -4.486359271451134245E-31, -1.000000000000000000, -1.262797871447343631E-16 ) ) ;
#9 = DIRECTION ( 'NONE',  ( -3.491481338843133355E-15, 1.224646799147353207E-16, -1.000000000000000000 ) ) ;
#10 = CARTESIAN_POINT ( 'NONE',  ( 6.633814543801952113E-14, 6.009999999999997122, 19.00000000000000000 ) ) ;
#11 = APPROVAL_PERSON_ORGANIZATION ( #82, #227, #158 ) ;
#12 = APPROVAL_STATUS ( 'not_yet_approved' ) ;
#13 = EDGE_LOOP ( 'NONE', ( #168 ) ) ;
#14 = VERTEX_POINT ( 'NONE', #98 ) ;
#15 = ADVANCED_FACE ( 'NONE', ( #195 ), #159, .F. ) ;
#16 = CALENDAR_DATE ( 2021, 2, 12 ) ;
#17 = ORIENTED_EDGE ( 'NONE', *, *, #255, .T. ) ;
#18 = APPROVAL_STATUS ( 'not_yet_approved' ) ;
#19 = DIRECTION ( 'NONE',  ( 4.275831445896958607E-31, 1.000000000000000000, 1.224646799147353207E-16 ) ) ;
#20 = DIRECTION ( 'NONE',  ( 4.275831445896958607E-31, 1.000000000000000000, 1.224646799147353207E-16 ) ) ;
#21 = PERSON_AND_ORGANIZATION ( #127, #217 ) ;
#22 = EDGE_LOOP ( 'NONE', ( #231 ) ) ;
#23 = LOCAL_TIME ( 9, 51, 6.000000000000000000, #106 ) ;
#24 = ADVANCED_FACE ( 'NONE', ( #238, #129 ), #46, .T. ) ;
#25 = APPLICATION_CONTEXT ( 'configuration controlled 3d designs of mechanical parts and assemblies' ) ;
#26 = CARTESIAN_POINT ( 'NONE',  ( 5.237222008264700285E-13, -1.836970198721029747E-14, 150.0000000000000000 ) ) ;
#27 = FACE_OUTER_BOUND ( 'NONE', #226, .T. ) ;
#28 = ADVANCED_FACE ( 'NONE', ( #43 ), #268, .T. ) ;
#29 = CIRCLE ( 'NONE', #265, 6.009999999999999787 ) ;
#30 = DIRECTION ( 'NONE',  ( 4.275831445896958607E-31, 1.000000000000000000, 1.224646799147352961E-16 ) ) ;
#31 = CARTESIAN_POINT ( 'NONE',  ( 3.730789202342417614E-13, -1.308584698452378832E-14, 106.8540496217739104 ) ) ;
#32 = PRODUCT_RELATED_PRODUCT_CATEGORY ( 'detail', '', ( #146 ) ) ;
#33 = EDGE_LOOP ( 'NONE', ( #83 ) ) ;
#34 = ADVANCED_FACE ( 'NONE', ( #152 ), #105, .F. ) ;
#35 = EDGE_LOOP ( 'NONE', ( #187 ) ) ;
#36 = CC_DESIGN_APPROVAL ( #192, ( #247 ) ) ;
#37 =( NAMED_UNIT ( * ) PLANE_ANGLE_UNIT ( ) SI_UNIT ( $, .RADIAN. ) );
#38 = COORDINATED_UNIVERSAL_TIME_OFFSET ( 1, 0, .AHEAD. ) ;
#39 = AXIS2_PLACEMENT_3D ( 'NONE', #134, #109, #112 ) ;
#40 = APPROVAL_ROLE ( '' ) ;
#41 = DIRECTION ( 'NONE',  ( -3.491481338843133355E-15, 1.224646799147353207E-16, -1.000000000000000000 ) ) ;
#42 = DATE_AND_TIME ( #86, #241 ) ;
#43 = FACE_OUTER_BOUND ( 'NONE', #33, .T. ) ;
#44 = ADVANCED_FACE ( 'NONE', ( #176, #58 ), #201, .F. ) ;
#45 = APPROVAL_DATE_TIME ( #96, #80 ) ;
#46 = CYLINDRICAL_SURFACE ( 'NONE', #252, 4.749999999999995559 ) ;
#47 = CARTESIAN_POINT ( 'NONE',  ( 3.730789202342417614E-13, 5.999999999999983125, 106.8540496217739104 ) ) ;
#48 = DIRECTION ( 'NONE',  ( 0.0000000000000000000, 1.000000000000000000, 0.0000000000000000000 ) ) ;
#49 = LOCAL_TIME ( 9, 51, 6.000000000000000000, #78 ) ;
#50 = FACE_OUTER_BOUND ( 'NONE', #214, .T. ) ;
#51 = DIRECTION ( 'NONE',  ( 0.0000000000000000000, 1.000000000000000000, 0.0000000000000000000 ) ) ;
#52 = CC_DESIGN_DATE_AND_TIME_ASSIGNMENT ( #233, #61, ( #247 ) ) ;
#53 = DIRECTION ( 'NONE',  ( 0.0000000000000000000, 1.000000000000000000, 0.0000000000000000000 ) ) ;
#54 = EDGE_CURVE ( 'NONE', #4, #4, #99, .T. ) ;
#55 = CC_DESIGN_APPROVAL ( #227, ( #160 ) ) ;
#56 = APPROVAL_STATUS ( 'not_yet_approved' ) ;
#57 = CARTESIAN_POINT ( 'NONE',  ( 6.633814543801952113E-14, -2.326828918379970970E-15, 19.00000000000000000 ) ) ;
#58 = FACE_OUTER_BOUND ( 'NONE', #13, .T. ) ;
#59 = AXIS2_PLACEMENT_3D ( 'NONE', #31, #141, #163 ) ;
#60 = EDGE_LOOP ( 'NONE', ( #225 ) ) ;
#61 = DATE_TIME_ROLE ( 'classification_date' ) ;
#62 = CALENDAR_DATE ( 2021, 2, 12 ) ;
#63 = DIRECTION ( 'NONE',  ( 0.0000000000000000000, 1.000000000000000000, 0.0000000000000000000 ) ) ;
#64 = AXIS2_PLACEMENT_3D ( 'NONE', #257, #228, #211 ) ;
#65 = VERTEX_POINT ( 'NONE', #10 ) ;
#66 = DIRECTION ( 'NONE',  ( -3.491481338843133355E-15, 1.224646799147353207E-16, -1.000000000000000000 ) ) ;
#67 = APPLICATION_CONTEXT ( 'configuration controlled 3d designs of mechanical parts and assemblies' ) ;
#68 = DIRECTION ( 'NONE',  ( -3.491481338843133355E-15, 1.224646799147353207E-16, -1.000000000000000000 ) ) ;
#69 = AXIS2_PLACEMENT_3D ( 'NONE', #150, #232, #20 ) ;
#70 = CIRCLE ( 'NONE', #169, 6.000000000000000888 ) ;
#71 = DIRECTION ( 'NONE',  ( 3.491481338843133355E-15, -1.224646799147353207E-16, 1.000000000000000000 ) ) ;
#72 = EDGE_CURVE ( 'NONE', #88, #88, #164, .T. ) ;
#73 = CARTESIAN_POINT ( 'NONE',  ( 0.0000000000000000000, 0.0000000000000000000, 0.0000000000000000000 ) ) ;
#74 = CARTESIAN_POINT ( 'NONE',  ( 7.395789850943888252E-14, 4.749999999999986677, 21.18238401753683320 ) ) ;
#75 = CIRCLE ( 'NONE', #130, 4.749999999999989342 ) ;
#76 = EDGE_LOOP ( 'NONE', ( #84 ) ) ;
#77 = PERSON_AND_ORGANIZATION ( #127, #217 ) ;
#78 = COORDINATED_UNIVERSAL_TIME_OFFSET ( 1, 0, .AHEAD. ) ;
#79 = AXIS2_PLACEMENT_3D ( 'NONE', #90, #180, #223 ) ;
#80 = APPROVAL ( #12, 'UNSPECIFIED' ) ;
#81 = CARTESIAN_POINT ( 'NONE',  ( 0.0000000000000000000, 0.0000000000000000000, 0.0000000000000000000 ) ) ;
#82 = PERSON_AND_ORGANIZATION ( #127, #217 ) ;
#83 = ORIENTED_EDGE ( 'NONE', *, *, #137, .F. ) ;
#84 = ORIENTED_EDGE ( 'NONE', *, *, #248, .T. ) ;
#85 = MANIFOLD_SOLID_BREP ( 'Corps-Déplacer/Copier1[1]', #212 ) ;
#86 = CALENDAR_DATE ( 2021, 2, 12 ) ;
#87 = DIRECTION ( 'NONE',  ( 0.0000000000000000000, 1.000000000000000000, 0.0000000000000000000 ) ) ;
#88 = VERTEX_POINT ( 'NONE', #249 ) ;
#89 = CONICAL_SURFACE ( 'NONE', #94, 4.749999999999989342, 0.5235987755982931535 ) ;
#90 = CARTESIAN_POINT ( 'NONE',  ( 1.745740669421564508E-15, -6.123233995736758640E-17, 0.4999999999999993339 ) ) ;
#91 = CARTESIAN_POINT ( 'NONE',  ( 0.0000000000000000000, 0.0000000000000000000, 0.0000000000000000000 ) ) ;
#92 = CARTESIAN_POINT ( 'NONE',  ( 7.395789850943888252E-14, -2.594093878538653322E-15, 21.18238401753683320 ) ) ;
#93 = EDGE_CURVE ( 'NONE', #222, #222, #6, .T. ) ;
#94 = AXIS2_PLACEMENT_3D ( 'NONE', #92, #7, #53 ) ;
#95 = FACE_OUTER_BOUND ( 'NONE', #104, .T. ) ;
#96 = DATE_AND_TIME ( #261, #49 ) ;
#97 = ORIENTED_EDGE ( 'NONE', *, *, #215, .F. ) ;
#98 = CARTESIAN_POINT ( 'NONE',  ( 5.272136821653131493E-13, 4.999999999999983125, 151.0000000000000000 ) ) ;
#99 = CIRCLE ( 'NONE', #283, 6.009999999999999787 ) ;
#100 = AXIS2_PLACEMENT_3D ( 'NONE', #143, #9, #224 ) ;
#101 = EDGE_LOOP ( 'NONE', ( #256 ) ) ;
#102 = PERSON_AND_ORGANIZATION ( #127, #217 ) ;
#103 = CC_DESIGN_DATE_AND_TIME_ASSIGNMENT ( #2, #237, ( #157 ) ) ;
#104 = EDGE_LOOP ( 'NONE', ( #167 ) ) ;
#105 = PLANE ( 'NONE',  #5 ) ;
#106 = COORDINATED_UNIVERSAL_TIME_OFFSET ( 1, 0, .AHEAD. ) ;
#107 = DIRECTION ( 'NONE',  ( -3.491481338843133355E-15, 1.224646799147353207E-16, -1.000000000000000000 ) ) ;
#108 = PERSON_AND_ORGANIZATION ( #127, #217 ) ;
#109 = DIRECTION ( 'NONE',  ( 3.491481338843133355E-15, -1.224646799147353207E-16, 1.000000000000000000 ) ) ;
#110 = CC_DESIGN_APPROVAL ( #80, ( #157 ) ) ;
#111 = ORIENTED_EDGE ( 'NONE', *, *, #117, .F. ) ;
#112 = DIRECTION ( 'NONE',  ( -4.275831445896958607E-31, -1.000000000000000000, -1.224646799147353207E-16 ) ) ;
#113 = CYLINDRICAL_SURFACE ( 'NONE', #153, 5.999999999999998224 ) ;
#114 = AXIS2_PLACEMENT_3D ( 'NONE', #240, #41, #131 ) ;
#115 = APPROVAL_PERSON_ORGANIZATION ( #108, #192, #40 ) ;
#116 = FACE_OUTER_BOUND ( 'NONE', #22, .T. ) ;
#117 = EDGE_CURVE ( 'NONE', #118, #118, #70, .T. ) ;
#118 = VERTEX_POINT ( 'NONE', #204 ) ;
#119 = AXIS2_PLACEMENT_3D ( 'NONE', #179, #107, #63 ) ;
#120 = EDGE_LOOP ( 'NONE', ( #210 ) ) ;
#121 = CC_DESIGN_PERSON_AND_ORGANIZATION_ASSIGNMENT ( #102, #189, ( #146 ) ) ;
#122 = APPLICATION_PROTOCOL_DEFINITION ( 'international standard', 'config_control_design', 1994, #25 ) ;
#123 = LOCAL_TIME ( 9, 51, 6.000000000000000000, #151 ) ;
#124 = EDGE_LOOP ( 'NONE', ( #111 ) ) ;
#125 = ADVANCED_FACE ( 'NONE', ( #282, #244 ), #113, .T. ) ;
#126 = PERSON_AND_ORGANIZATION_ROLE ( 'creator' ) ;
#127 = PERSON ( 'UNSPECIFIED', 'UNSPECIFIED', 'UNSPECIFIED', ('UNSPECIFIED'), ('UNSPECIFIED'), ('UNSPECIFIED') ) ;
#128 = APPROVAL_DATE_TIME ( #42, #227 ) ;
#129 = FACE_OUTER_BOUND ( 'NONE', #258, .T. ) ;
#130 = AXIS2_PLACEMENT_3D ( 'NONE', #165, #246, #48 ) ;
#131 = DIRECTION ( 'NONE',  ( 4.275831445896958607E-31, 1.000000000000000000, 1.224646799147353207E-16 ) ) ;
#132 = SHAPE_DEFINITION_REPRESENTATION ( #239, #242 ) ;
#133 = DESIGN_CONTEXT ( 'detailed design', #67, 'design' ) ;
#134 = CARTESIAN_POINT ( 'NONE',  ( 6.633814543801952113E-14, 4.506778146898878335E-32, 19.00000000000000000 ) ) ;
#135 = PERSON_AND_ORGANIZATION ( #127, #217 ) ;
#136 = ORIENTED_EDGE ( 'NONE', *, *, #117, .T. ) ;
#137 = EDGE_CURVE ( 'NONE', #65, #65, #29, .T. ) ;
#138 = DIRECTION ( 'NONE',  ( -4.275831445896958607E-31, -1.000000000000000000, -1.224646799147353207E-16 ) ) ;
#139 = VERTEX_POINT ( 'NONE', #74 ) ;
#140 = DIRECTION ( 'NONE',  ( 0.0000000000000000000, 1.000000000000000000, 0.0000000000000000000 ) ) ;
#141 = DIRECTION ( 'NONE',  ( -3.491481338843133355E-15, 1.224646799147353207E-16, -1.000000000000000000 ) ) ;
#142 = FACE_OUTER_BOUND ( 'NONE', #264, .T. ) ;
#143 = CARTESIAN_POINT ( 'NONE',  ( 5.272136821653131493E-13, -1.849216666712503261E-14, 151.0000000000000000 ) ) ;
#144 = ORIENTED_EDGE ( 'NONE', *, *, #93, .T. ) ;
#145 = ADVANCED_FACE ( 'NONE', ( #116 ), #272, .F. ) ;
#146 = PRODUCT ( '200648', '200648', '', ( #209 ) ) ;
#147 = AXIS2_PLACEMENT_3D ( 'NONE', #185, #202, #8 ) ;
#148 = ORIENTED_EDGE ( 'NONE', *, *, #137, .T. ) ;
#149 = PERSON_AND_ORGANIZATION_ROLE ( 'design_supplier' ) ;
#150 = CARTESIAN_POINT ( 'NONE',  ( -8.417944655826962299E-31, 2.952617521814921543E-32, -2.410995173359901983E-16 ) ) ;
#151 = COORDINATED_UNIVERSAL_TIME_OFFSET ( 1, 0, .AHEAD. ) ;
#152 = FACE_OUTER_BOUND ( 'NONE', #60, .T. ) ;
#153 = AXIS2_PLACEMENT_3D ( 'NONE', #73, #203, #250 ) ;
#154 = COORDINATED_UNIVERSAL_TIME_OFFSET ( 1, 0, .AHEAD. ) ;
#155 = EDGE_LOOP ( 'NONE', ( #136 ) ) ;
#156 = DIRECTION ( 'NONE',  ( -3.491481338843133355E-15, 1.224646799147353207E-16, -1.000000000000000000 ) ) ;
#157 = PRODUCT_DEFINITION ( 'UNKNOWN', '', #160, #133 ) ;
#158 = APPROVAL_ROLE ( '' ) ;
#159 = PLANE ( 'NONE',  #207 ) ;
#160 = PRODUCT_DEFINITION_FORMATION_WITH_SPECIFIED_SOURCE ( 'ANY', '', #146, .NOT_KNOWN. ) ;
#161 = VERTEX_POINT ( 'NONE', #47 ) ;
#162 = FACE_BOUND ( 'NONE', #280, .T. ) ;
#163 = DIRECTION ( 'NONE',  ( 0.0000000000000000000, 1.000000000000000000, 0.0000000000000000000 ) ) ;
#164 = CIRCLE ( 'NONE', #69, 5.510000000000002451 ) ;
#165 = CARTESIAN_POINT ( 'NONE',  ( 7.395789850943888252E-14, -2.594093878538653322E-15, 21.18238401753683320 ) ) ;
#166 = CARTESIAN_POINT ( 'NONE',  ( -4.208972327913481149E-31, 1.476308760907460771E-32, -1.205497586679950991E-16 ) ) ;
#167 = ORIENTED_EDGE ( 'NONE', *, *, #54, .F. ) ;
#168 = ORIENTED_EDGE ( 'NONE', *, *, #215, .T. ) ;
#169 = AXIS2_PLACEMENT_3D ( 'NONE', #26, #173, #193 ) ;
#170 = CARTESIAN_POINT ( 'NONE',  ( 5.272136821653131493E-13, 3.749399456654617198E-32, 151.0000000000000000 ) ) ;
#171 = ADVANCED_FACE ( 'NONE', ( #271, #162 ), #191, .T. ) ;
#172 = DATE_AND_TIME ( #62, #23 ) ;
#173 = DIRECTION ( 'NONE',  ( -3.491481338843133355E-15, 1.224646799147353207E-16, -1.000000000000000000 ) ) ;
#174 = PERSON_AND_ORGANIZATION_ROLE ( 'creator' ) ;
#175 = CONICAL_SURFACE ( 'NONE', #147, 6.009999999999997122, 0.7853981633974430610 ) ;
#176 = FACE_OUTER_BOUND ( 'NONE', #35, .T. ) ;
#177 = PERSON_AND_ORGANIZATION ( #127, #217 ) ;
#178 = UNCERTAINTY_MEASURE_WITH_UNIT (LENGTH_MEASURE( 1.000000000000000082E-05 ), #230, 'distance_accuracy_value', 'NONE');
#179 = CARTESIAN_POINT ( 'NONE',  ( 3.666055405785289897E-13, -1.285879139104720791E-14, 105.0000000000000000 ) ) ;
#180 = DIRECTION ( 'NONE',  ( -3.491481338843133355E-15, 1.224646799147353207E-16, -1.000000000000000000 ) ) ;
#181 = CARTESIAN_POINT ( 'NONE',  ( 6.633814543801952113E-14, -2.326828918379970970E-15, 19.00000000000000000 ) ) ;
#182 = CYLINDRICAL_SURFACE ( 'NONE', #253, 6.009999999999998010 ) ;
#183 = CARTESIAN_POINT ( 'NONE',  ( 6.633814543801952113E-14, 6.009999999999997122, 19.00000000000000000 ) ) ;
#184 = CIRCLE ( 'NONE', #59, 5.999999999999995559 ) ;
#185 = CARTESIAN_POINT ( 'NONE',  ( 1.745740669421564508E-15, -6.123233995736758640E-17, 0.4999999999999993339 ) ) ;
#186 = MANIFOLD_SOLID_BREP ( 'Corps-Déplacer/Copier1[2]', #220 ) ;
#187 = ORIENTED_EDGE ( 'NONE', *, *, #93, .F. ) ;
#188 = CC_DESIGN_PERSON_AND_ORGANIZATION_ASSIGNMENT ( #177, #126, ( #160 ) ) ;
#189 = PERSON_AND_ORGANIZATION_ROLE ( 'design_owner' ) ;
#190 = APPROVAL_ROLE ( '' ) ;
#191 = CONICAL_SURFACE ( 'NONE', #279, 5.000000000000000888, 0.7853981633974479459 ) ;
#192 = APPROVAL ( #18, 'UNSPECIFIED' ) ;
#193 = DIRECTION ( 'NONE',  ( 0.0000000000000000000, 1.000000000000000000, 0.0000000000000000000 ) ) ;
#194 = APPROVAL_DATE_TIME ( #172, #192 ) ;
#195 = FACE_OUTER_BOUND ( 'NONE', #275, .T. ) ;
#196 = CC_DESIGN_SECURITY_CLASSIFICATION ( #247, ( #160 ) ) ;
#197 = CALENDAR_DATE ( 2021, 2, 12 ) ;
#198 = DIRECTION ( 'NONE',  ( 3.491481338843133355E-15, -1.224646799147353207E-16, 1.000000000000000000 ) ) ;
#199 = CARTESIAN_POINT ( 'NONE',  ( 5.272136821653131493E-13, -1.849216666712503261E-14, 151.0000000000000000 ) ) ;
#200 = FACE_BOUND ( 'NONE', #76, .T. ) ;
#201 = TOROIDAL_SURFACE ( 'NONE', #114, 6.750000000000000888, 2.000000000000003109 ) ;
#202 = DIRECTION ( 'NONE',  ( 3.491481338843133355E-15, -1.224646799147353207E-16, 1.000000000000000000 ) ) ;
#203 = DIRECTION ( 'NONE',  ( -3.491481338843133355E-15, 1.224646799147353207E-16, -1.000000000000000000 ) ) ;
#204 = CARTESIAN_POINT ( 'NONE',  ( 5.237222008264700285E-13, 5.999999999999983125, 150.0000000000000000 ) ) ;
#205 = CC_DESIGN_PERSON_AND_ORGANIZATION_ASSIGNMENT ( #21, #267, ( #247 ) ) ;
#206 = CARTESIAN_POINT ( 'NONE',  ( 1.745740669421567072E-15, 6.009999999999997122, 0.5000000000000001110 ) ) ;
#207 = AXIS2_PLACEMENT_3D ( 'NONE', #266, #198, #138 ) ;
#208 = LOCAL_TIME ( 9, 51, 6.000000000000000000, #38 ) ;
#209 = MECHANICAL_CONTEXT ( 'NONE', #25, 'mechanical' ) ;
#210 = ORIENTED_EDGE ( 'NONE', *, *, #72, .F. ) ;
#211 = DIRECTION ( 'NONE',  ( 1.000000000000000000, 0.0000000000000000000, 0.0000000000000000000 ) ) ;
#212 = CLOSED_SHELL ( 'NONE', ( #15, #243, #24, #44, #125, #171, #34 ) ) ;
#213 = SECURITY_CLASSIFICATION_LEVEL ( 'unclassified' ) ;
#214 = EDGE_LOOP ( 'NONE', ( #17 ) ) ;
#215 = EDGE_CURVE ( 'NONE', #161, #161, #184, .T. ) ;
#216 = ORIENTED_EDGE ( 'NONE', *, *, #54, .T. ) ;
#217 = ORGANIZATION ( 'UNSPECIFIED', 'UNSPECIFIED', '' ) ;
#218 = DIRECTION ( 'NONE',  ( 4.275831445896958607E-31, 1.000000000000000000, 1.224646799147353207E-16 ) ) ;
#219 = FACE_BOUND ( 'NONE', #120, .T. ) ;
#220 = CLOSED_SHELL ( 'NONE', ( #145, #263, #236, #28 ) ) ;
#221 = CIRCLE ( 'NONE', #100, 5.000000000000000888 ) ;
#222 = VERTEX_POINT ( 'NONE', #273 ) ;
#223 = DIRECTION ( 'NONE',  ( 4.486359271451134245E-31, 1.000000000000000000, 1.262797871447343631E-16 ) ) ;
#224 = DIRECTION ( 'NONE',  ( 0.0000000000000000000, 1.000000000000000000, 0.0000000000000000000 ) ) ;
#225 = ORIENTED_EDGE ( 'NONE', *, *, #274, .F. ) ;
#226 = EDGE_LOOP ( 'NONE', ( #262 ) ) ;
#227 = APPROVAL ( #56, 'UNSPECIFIED' ) ;
#228 = DIRECTION ( 'NONE',  ( 0.0000000000000000000, 0.0000000000000000000, 1.000000000000000000 ) ) ;
#229 = AXIS2_PLACEMENT_3D ( 'NONE', #166, #71, #269 ) ;
#230 =( LENGTH_UNIT ( ) NAMED_UNIT ( * ) SI_UNIT ( .MILLI., .METRE. ) );
#231 = ORIENTED_EDGE ( 'NONE', *, *, #72, .T. ) ;
#232 = DIRECTION ( 'NONE',  ( -3.491481338843133355E-15, 1.224646799147353207E-16, -1.000000000000000000 ) ) ;
#233 = DATE_AND_TIME ( #16, #123 ) ;
#234 =( GEOMETRIC_REPRESENTATION_CONTEXT ( 3 ) GLOBAL_UNCERTAINTY_ASSIGNED_CONTEXT ( ( #178 ) ) GLOBAL_UNIT_ASSIGNED_CONTEXT ( ( #230, #37, #276 ) ) REPRESENTATION_CONTEXT ( 'NONE', 'WORKASPACE' ) );
#235 = ORIENTED_EDGE ( 'NONE', *, *, #274, .T. ) ;
#236 = ADVANCED_FACE ( 'NONE', ( #27, #142 ), #182, .T. ) ;
#237 = DATE_TIME_ROLE ( 'creation_date' ) ;
#238 = FACE_OUTER_BOUND ( 'NONE', #101, .T. ) ;
#239 = PRODUCT_DEFINITION_SHAPE ( 'NONE', 'NONE',  #157 ) ;
#240 = CARTESIAN_POINT ( 'NONE',  ( 3.666055405785289897E-13, -1.301042606982605321E-14, 105.0000000000000000 ) ) ;
#241 = LOCAL_TIME ( 9, 51, 6.000000000000000000, #154 ) ;
#242 = ADVANCED_BREP_SHAPE_REPRESENTATION ( '200648', ( #85, #186, #64 ), #234 ) ;
#243 = ADVANCED_FACE ( 'NONE', ( #95, #200 ), #89, .T. ) ;
#244 = FACE_OUTER_BOUND ( 'NONE', #155, .T. ) ;
#245 = DIRECTION ( 'NONE',  ( -3.491481338843133355E-15, 1.224646799147353207E-16, -1.000000000000000000 ) ) ;
#246 = DIRECTION ( 'NONE',  ( -3.491481338843133355E-15, 1.224646799147353207E-16, -1.000000000000000000 ) ) ;
#247 = SECURITY_CLASSIFICATION ( '', '', #213 ) ;
#248 = EDGE_CURVE ( 'NONE', #139, #139, #75, .T. ) ;
#249 = CARTESIAN_POINT ( 'NONE',  ( 1.514188661106529085E-30, 5.510000000000002451, 4.336808689942017736E-16 ) ) ;
#250 = DIRECTION ( 'NONE',  ( 4.275831445896958607E-31, 1.000000000000000000, 1.224646799147353207E-16 ) ) ;
#251 = EDGE_LOOP ( 'NONE', ( #97 ) ) ;
#252 = AXIS2_PLACEMENT_3D ( 'NONE', #81, #156, #19 ) ;
#253 = AXIS2_PLACEMENT_3D ( 'NONE', #91, #245, #30 ) ;
#254 = VERTEX_POINT ( 'NONE', #206 ) ;
#255 = EDGE_CURVE ( 'NONE', #254, #254, #270, .T. ) ;
#256 = ORIENTED_EDGE ( 'NONE', *, *, #248, .F. ) ;
#257 = CARTESIAN_POINT ( 'NONE',  ( 0.0000000000000000000, 0.0000000000000000000, 0.0000000000000000000 ) ) ;
#258 = EDGE_LOOP ( 'NONE', ( #144 ) ) ;
#259 = CC_DESIGN_PERSON_AND_ORGANIZATION_ASSIGNMENT ( #135, #174, ( #157 ) ) ;
#260 = APPROVAL_PERSON_ORGANIZATION ( #77, #80, #190 ) ;
#261 = CALENDAR_DATE ( 2021, 2, 12 ) ;
#262 = ORIENTED_EDGE ( 'NONE', *, *, #255, .F. ) ;
#263 = ADVANCED_FACE ( 'NONE', ( #219, #50 ), #175, .T. ) ;
#264 = EDGE_LOOP ( 'NONE', ( #148 ) ) ;
#265 = AXIS2_PLACEMENT_3D ( 'NONE', #181, #66, #140 ) ;
#266 = CARTESIAN_POINT ( 'NONE',  ( 6.633814543801952113E-14, 4.506778146898878335E-32, 19.00000000000000000 ) ) ;
#267 = PERSON_AND_ORGANIZATION_ROLE ( 'classification_officer' ) ;
#268 = PLANE ( 'NONE',  #39 ) ;
#269 = DIRECTION ( 'NONE',  ( -4.275831445896958607E-31, -1.000000000000000000, -1.224646799147353207E-16 ) ) ;
#270 = CIRCLE ( 'NONE', #79, 6.009999999999997122 ) ;
#271 = FACE_OUTER_BOUND ( 'NONE', #124, .T. ) ;
#272 = PLANE ( 'NONE',  #229 ) ;
#273 = CARTESIAN_POINT ( 'NONE',  ( 3.666055405785289897E-13, 4.749999999999987566, 105.0000000000000000 ) ) ;
#274 = EDGE_CURVE ( 'NONE', #14, #14, #221, .T. ) ;
#275 = EDGE_LOOP ( 'NONE', ( #216 ) ) ;
#276 =( NAMED_UNIT ( * ) SI_UNIT ( $, .STERADIAN. ) SOLID_ANGLE_UNIT ( ) );
#277 = APPLICATION_PROTOCOL_DEFINITION ( 'international standard', 'config_control_design', 1994, #67 ) ;
#278 = CC_DESIGN_PERSON_AND_ORGANIZATION_ASSIGNMENT ( #281, #149, ( #160 ) ) ;
#279 = AXIS2_PLACEMENT_3D ( 'NONE', #199, #68, #51 ) ;
#280 = EDGE_LOOP ( 'NONE', ( #235 ) ) ;
#281 = PERSON_AND_ORGANIZATION ( #127, #217 ) ;
#282 = FACE_OUTER_BOUND ( 'NONE', #251, .T. ) ;
#283 = AXIS2_PLACEMENT_3D ( 'NONE', #57, #3, #87 ) ;
ENDSEC;
END-ISO-10303-21;
