ISO-10303-21;
HEADER;
FILE_DESCRIPTION (( 'STEP AP203' ),
    '1' );
FILE_NAME ('200647.step',
    '2021-12-02T08:51:06',
    ( '' ),
    ( '' ),
    'SwSTEP 2.0',
    'SolidWorks 2019',
    '' );
FILE_SCHEMA (( 'CONFIG_CONTROL_DESIGN' ));
ENDSEC;

DATA;
#1 = PERSON_AND_ORGANIZATION ( #121, #15 ) ;
#2 = VERTEX_POINT ( 'NONE', #170 ) ;
#3 = ORIENTED_EDGE ( 'NONE', *, *, #21, .F. ) ;
#4 = APPROVAL_STATUS ( 'not_yet_approved' ) ;
#5 = APPLICATION_CONTEXT ( 'configuration controlled 3d designs of mechanical parts and assemblies' ) ;
#6 = ORIENTED_EDGE ( 'NONE', *, *, #265, .F. ) ;
#7 = LOCAL_TIME ( 9, 51, 6.000000000000000000, #140 ) ;
#8 = FACE_OUTER_BOUND ( 'NONE', #261, .T. ) ;
#9 = CARTESIAN_POINT ( 'NONE',  ( 2.190858688076259058E-30, -7.684497837315532778E-32, 6.274868674515607241E-16 ) ) ;
#10 = AXIS2_PLACEMENT_3D ( 'NONE', #126, #148, #240 ) ;
#11 = FACE_OUTER_BOUND ( 'NONE', #193, .T. ) ;
#12 = FACE_OUTER_BOUND ( 'NONE', #149, .T. ) ;
#13 = FACE_BOUND ( 'NONE', #174, .T. ) ;
#14 = DIRECTION ( 'NONE',  ( 0.0000000000000000000, 1.000000000000000000, 0.0000000000000000000 ) ) ;
#15 = ORGANIZATION ( 'UNSPECIFIED', 'UNSPECIFIED', '' ) ;
#16 = DIRECTION ( 'NONE',  ( -3.491481338843133355E-15, 1.224646799147353207E-16, -1.000000000000000000 ) ) ;
#17 = ADVANCED_FACE ( 'NONE', ( #214, #106 ), #84, .T. ) ;
#18 = PERSON_AND_ORGANIZATION_ROLE ( 'classification_officer' ) ;
#19 = ORIENTED_EDGE ( 'NONE', *, *, #92, .T. ) ;
#20 = LOCAL_TIME ( 9, 51, 6.000000000000000000, #260 ) ;
#21 = EDGE_CURVE ( 'NONE', #276, #276, #152, .T. ) ;
#22 = ORIENTED_EDGE ( 'NONE', *, *, #36, .T. ) ;
#23 = CARTESIAN_POINT ( 'NONE',  ( 0.0000000000000000000, 0.0000000000000000000, 0.0000000000000000000 ) ) ;
#24 = DIRECTION ( 'NONE',  ( -3.491481338843133355E-15, 1.224646799147353207E-16, -1.000000000000000000 ) ) ;
#25 = EDGE_CURVE ( 'NONE', #81, #81, #189, .T. ) ;
#26 = AXIS2_PLACEMENT_3D ( 'NONE', #49, #130, #249 ) ;
#27 = DIRECTION ( 'NONE',  ( 4.275831445896958607E-31, 1.000000000000000000, 1.224646799147353207E-16 ) ) ;
#28 = DIRECTION ( 'NONE',  ( -3.491481338843133355E-15, 1.224646799147353207E-16, -1.000000000000000000 ) ) ;
#29 = FACE_OUTER_BOUND ( 'NONE', #69, .T. ) ;
#30 = ADVANCED_FACE ( 'NONE', ( #124, #220 ), #244, .T. ) ;
#31 = AXIS2_PLACEMENT_3D ( 'NONE', #99, #28, #153 ) ;
#32 = CYLINDRICAL_SURFACE ( 'NONE', #104, 5.999999999999998224 ) ;
#33 = DATE_AND_TIME ( #228, #210 ) ;
#34 = CARTESIAN_POINT ( 'NONE',  ( 6.633814543801952113E-14, -2.326828918379970970E-15, 19.00000000000000000 ) ) ;
#35 = AXIS2_PLACEMENT_3D ( 'NONE', #66, #42, #146 ) ;
#36 = EDGE_CURVE ( 'NONE', #138, #138, #115, .T. ) ;
#37 = CONICAL_SURFACE ( 'NONE', #31, 5.000000000000000888, 0.7853981633974479459 ) ;
#38 = PRODUCT_RELATED_PRODUCT_CATEGORY ( 'detail', '', ( #282 ) ) ;
#39 = VERTEX_POINT ( 'NONE', #141 ) ;
#40 = AXIS2_PLACEMENT_3D ( 'NONE', #269, #76, #247 ) ;
#41 = SHAPE_DEFINITION_REPRESENTATION ( #191, #161 ) ;
#42 = DIRECTION ( 'NONE',  ( -3.491481338843133355E-15, 1.224646799147353207E-16, -1.000000000000000000 ) ) ;
#43 = ORIENTED_EDGE ( 'NONE', *, *, #92, .F. ) ;
#44 = CC_DESIGN_PERSON_AND_ORGANIZATION_ASSIGNMENT ( #186, #85, ( #206 ) ) ;
#45 =( GEOMETRIC_REPRESENTATION_CONTEXT ( 3 ) GLOBAL_UNCERTAINTY_ASSIGNED_CONTEXT ( ( #172 ) ) GLOBAL_UNIT_ASSIGNED_CONTEXT ( ( #58, #118, #101 ) ) REPRESENTATION_CONTEXT ( 'NONE', 'WORKASPACE' ) );
#46 = APPROVAL_ROLE ( '' ) ;
#47 = CARTESIAN_POINT ( 'NONE',  ( 1.745740669421564508E-15, -6.123233995736758640E-17, 0.4999999999999993339 ) ) ;
#48 = ORIENTED_EDGE ( 'NONE', *, *, #265, .T. ) ;
#49 = CARTESIAN_POINT ( 'NONE',  ( 1.745740669421564508E-15, -6.123233995736758640E-17, 0.4999999999999993339 ) ) ;
#50 = DIRECTION ( 'NONE',  ( 0.0000000000000000000, 1.000000000000000000, 0.0000000000000000000 ) ) ;
#51 = CARTESIAN_POINT ( 'NONE',  ( 5.272136821653131493E-13, 3.749399456654617198E-32, 151.0000000000000000 ) ) ;
#52 = FACE_OUTER_BOUND ( 'NONE', #144, .T. ) ;
#53 = AXIS2_PLACEMENT_3D ( 'NONE', #198, #112, #273 ) ;
#54 = PERSON_AND_ORGANIZATION_ROLE ( 'creator' ) ;
#55 = CC_DESIGN_APPROVAL ( #222, ( #216 ) ) ;
#56 = MECHANICAL_CONTEXT ( 'NONE', #258, 'mechanical' ) ;
#57 = EDGE_CURVE ( 'NONE', #2, #2, #154, .T. ) ;
#58 =( LENGTH_UNIT ( ) NAMED_UNIT ( * ) SI_UNIT ( .MILLI., .METRE. ) );
#59 = APPROVAL_PERSON_ORGANIZATION ( #167, #157, #46 ) ;
#60 = ADVANCED_FACE ( 'NONE', ( #225, #177 ), #129, .T. ) ;
#61 = APPROVAL_ROLE ( '' ) ;
#62 = ORIENTED_EDGE ( 'NONE', *, *, #199, .T. ) ;
#63 = APPROVAL_STATUS ( 'not_yet_approved' ) ;
#64 = ORIENTED_EDGE ( 'NONE', *, *, #25, .F. ) ;
#65 = DATE_AND_TIME ( #120, #20 ) ;
#66 = CARTESIAN_POINT ( 'NONE',  ( 6.633814543801952113E-14, -2.326828918379970970E-15, 19.00000000000000000 ) ) ;
#67 = EDGE_LOOP ( 'NONE', ( #108 ) ) ;
#68 = AXIS2_PLACEMENT_3D ( 'NONE', #47, #221, #113 ) ;
#69 = EDGE_LOOP ( 'NONE', ( #86 ) ) ;
#70 = DESIGN_CONTEXT ( 'detailed design', #5, 'design' ) ;
#71 = FACE_OUTER_BOUND ( 'NONE', #190, .T. ) ;
#72 = DIRECTION ( 'NONE',  ( 0.0000000000000000000, 1.000000000000000000, 0.0000000000000000000 ) ) ;
#73 = AXIS2_PLACEMENT_3D ( 'NONE', #165, #135, #103 ) ;
#74 = DIRECTION ( 'NONE',  ( 4.275831445896957731E-31, 1.000000000000000000, 1.224646799147352961E-16 ) ) ;
#75 = ADVANCED_FACE ( 'NONE', ( #8 ), #109, .T. ) ;
#76 = DIRECTION ( 'NONE',  ( -3.491481338843133355E-15, 1.224646799147353207E-16, -1.000000000000000000 ) ) ;
#77 = APPROVAL_DATE_TIME ( #272, #222 ) ;
#78 = DIRECTION ( 'NONE',  ( -3.491481338843133355E-15, 1.224646799147353207E-16, -1.000000000000000000 ) ) ;
#79 = CC_DESIGN_SECURITY_CLASSIFICATION ( #82, ( #206 ) ) ;
#80 = CARTESIAN_POINT ( 'NONE',  ( 0.0000000000000000000, 0.0000000000000000000, 0.0000000000000000000 ) ) ;
#81 = VERTEX_POINT ( 'NONE', #251 ) ;
#82 = SECURITY_CLASSIFICATION ( '', '', #215 ) ;
#83 = APPROVAL ( #4, 'UNSPECIFIED' ) ;
#84 = CYLINDRICAL_SURFACE ( 'NONE', #162, 4.749999999999995559 ) ;
#85 = PERSON_AND_ORGANIZATION_ROLE ( 'design_supplier' ) ;
#86 = ORIENTED_EDGE ( 'NONE', *, *, #275, .T. ) ;
#87 = APPROVAL_DATE_TIME ( #65, #83 ) ;
#88 = ORIENTED_EDGE ( 'NONE', *, *, #199, .F. ) ;
#89 = EDGE_LOOP ( 'NONE', ( #48 ) ) ;
#90 = CARTESIAN_POINT ( 'NONE',  ( 1.745740669421567072E-15, 5.999999999999997335, 0.5000000000000001110 ) ) ;
#91 = APPROVAL_PERSON_ORGANIZATION ( #143, #83, #61 ) ;
#92 = EDGE_CURVE ( 'NONE', #262, #262, #231, .T. ) ;
#93 = CARTESIAN_POINT ( 'NONE',  ( 3.666055405785289897E-13, -1.301042606982605321E-14, 105.0000000000000000 ) ) ;
#94 = FACE_OUTER_BOUND ( 'NONE', #171, .T. ) ;
#95 = ADVANCED_FACE ( 'NONE', ( #156, #12 ), #233, .F. ) ;
#96 = FACE_BOUND ( 'NONE', #122, .T. ) ;
#97 = CONICAL_SURFACE ( 'NONE', #197, 4.749999999999989342, 0.5235987755982928205 ) ;
#98 = DIRECTION ( 'NONE',  ( -3.491481338843133355E-15, 1.224646799147353207E-16, -1.000000000000000000 ) ) ;
#99 = CARTESIAN_POINT ( 'NONE',  ( 5.272136821653131493E-13, -1.849216666712503261E-14, 151.0000000000000000 ) ) ;
#100 = CC_DESIGN_APPROVAL ( #157, ( #82 ) ) ;
#101 =( NAMED_UNIT ( * ) SI_UNIT ( $, .STERADIAN. ) SOLID_ANGLE_UNIT ( ) );
#102 = APPLICATION_PROTOCOL_DEFINITION ( 'international standard', 'config_control_design', 1994, #5 ) ;
#103 = DIRECTION ( 'NONE',  ( 0.0000000000000000000, 1.000000000000000000, 0.0000000000000000000 ) ) ;
#104 = AXIS2_PLACEMENT_3D ( 'NONE', #151, #201, #27 ) ;
#105 = EDGE_LOOP ( 'NONE', ( #241 ) ) ;
#106 = FACE_OUTER_BOUND ( 'NONE', #264, .T. ) ;
#107 = VERTEX_POINT ( 'NONE', #255 ) ;
#108 = ORIENTED_EDGE ( 'NONE', *, *, #36, .F. ) ;
#109 = PLANE ( 'NONE',  #283 ) ;
#110 = CIRCLE ( 'NONE', #192, 5.500000000000003553 ) ;
#111 = PLANE ( 'NONE',  #270 ) ;
#112 = DIRECTION ( 'NONE',  ( -3.491481338843133355E-15, 1.224646799147353207E-16, -1.000000000000000000 ) ) ;
#113 = DIRECTION ( 'NONE',  ( -4.493836536903552367E-31, -1.000000000000000000, -1.264902534566422415E-16 ) ) ;
#114 = DIRECTION ( 'NONE',  ( -4.275831445896958607E-31, -1.000000000000000000, -1.224646799147353207E-16 ) ) ;
#115 = CIRCLE ( 'NONE', #163, 4.749999999999989342 ) ;
#116 = ADVANCED_FACE ( 'NONE', ( #94, #13 ), #97, .T. ) ;
#117 = DIRECTION ( 'NONE',  ( 1.000000000000000000, 0.0000000000000000000, 0.0000000000000000000 ) ) ;
#118 =( NAMED_UNIT ( * ) PLANE_ANGLE_UNIT ( ) SI_UNIT ( $, .RADIAN. ) );
#119 = DATE_AND_TIME ( #145, #7 ) ;
#120 = CALENDAR_DATE ( 2021, 2, 12 ) ;
#121 = PERSON ( 'UNSPECIFIED', 'UNSPECIFIED', 'UNSPECIFIED', ('UNSPECIFIED'), ('UNSPECIFIED'), ('UNSPECIFIED') ) ;
#122 = EDGE_LOOP ( 'NONE', ( #173 ) ) ;
#123 = DATE_TIME_ROLE ( 'classification_date' ) ;
#124 = FACE_BOUND ( 'NONE', #278, .T. ) ;
#125 = CIRCLE ( 'NONE', #137, 6.000000000000000000 ) ;
#126 = CARTESIAN_POINT ( 'NONE',  ( 5.272136821653131493E-13, -1.849216666712503261E-14, 151.0000000000000000 ) ) ;
#127 = CARTESIAN_POINT ( 'NONE',  ( 7.389742427871334505E-14, -2.591972728061204022E-15, 21.16506350946114523 ) ) ;
#128 = LOCAL_TIME ( 9, 51, 6.000000000000000000, #208 ) ;
#129 = CYLINDRICAL_SURFACE ( 'NONE', #40, 5.999999999999998224 ) ;
#130 = DIRECTION ( 'NONE',  ( -3.491481338843133355E-15, 1.224646799147353207E-16, -1.000000000000000000 ) ) ;
#131 = PLANE ( 'NONE',  #266 ) ;
#132 = ADVANCED_FACE ( 'NONE', ( #268, #96 ), #37, .T. ) ;
#133 = COORDINATED_UNIVERSAL_TIME_OFFSET ( 1, 0, .AHEAD. ) ;
#134 = DIRECTION ( 'NONE',  ( 0.0000000000000000000, 0.0000000000000000000, 1.000000000000000000 ) ) ;
#135 = DIRECTION ( 'NONE',  ( -3.491481338843133355E-15, 1.224646799147353207E-16, -1.000000000000000000 ) ) ;
#136 = CC_DESIGN_PERSON_AND_ORGANIZATION_ASSIGNMENT ( #1, #18, ( #82 ) ) ;
#137 = AXIS2_PLACEMENT_3D ( 'NONE', #34, #183, #14 ) ;
#138 = VERTEX_POINT ( 'NONE', #254 ) ;
#139 = PERSON_AND_ORGANIZATION ( #121, #15 ) ;
#140 = COORDINATED_UNIVERSAL_TIME_OFFSET ( 1, 0, .AHEAD. ) ;
#141 = CARTESIAN_POINT ( 'NONE',  ( 4.542565983319587431E-30, 5.500000000000003553, 1.301042606982605321E-15 ) ) ;
#142 = EDGE_LOOP ( 'NONE', ( #88 ) ) ;
#143 = PERSON_AND_ORGANIZATION ( #121, #15 ) ;
#144 = EDGE_LOOP ( 'NONE', ( #259 ) ) ;
#145 = CALENDAR_DATE ( 2021, 2, 12 ) ;
#146 = DIRECTION ( 'NONE',  ( 0.0000000000000000000, 1.000000000000000000, 0.0000000000000000000 ) ) ;
#147 = CC_DESIGN_PERSON_AND_ORGANIZATION_ASSIGNMENT ( #217, #280, ( #206 ) ) ;
#148 = DIRECTION ( 'NONE',  ( -3.491481338843133355E-15, 1.224646799147353207E-16, -1.000000000000000000 ) ) ;
#149 = EDGE_LOOP ( 'NONE', ( #194 ) ) ;
#150 = CC_DESIGN_PERSON_AND_ORGANIZATION_ASSIGNMENT ( #248, #54, ( #216 ) ) ;
#151 = CARTESIAN_POINT ( 'NONE',  ( 0.0000000000000000000, 0.0000000000000000000, 0.0000000000000000000 ) ) ;
#152 = CIRCLE ( 'NONE', #35, 6.000000000000000000 ) ;
#153 = DIRECTION ( 'NONE',  ( 0.0000000000000000000, 1.000000000000000000, 0.0000000000000000000 ) ) ;
#154 = CIRCLE ( 'NONE', #53, 5.999999999999995559 ) ;
#155 = FACE_OUTER_BOUND ( 'NONE', #188, .T. ) ;
#156 = FACE_OUTER_BOUND ( 'NONE', #142, .T. ) ;
#157 = APPROVAL ( #63, 'UNSPECIFIED' ) ;
#158 = CARTESIAN_POINT ( 'NONE',  ( 6.633814543801952113E-14, 4.499279347985568992E-32, 19.00000000000000000 ) ) ;
#159 = CARTESIAN_POINT ( 'NONE',  ( 6.633814543801952113E-14, 4.499279347985568992E-32, 19.00000000000000000 ) ) ;
#160 = CC_DESIGN_DATE_AND_TIME_ASSIGNMENT ( #33, #234, ( #216 ) ) ;
#161 = ADVANCED_BREP_SHAPE_REPRESENTATION ( '200647', ( #195, #196, #277 ), #45 ) ;
#162 = AXIS2_PLACEMENT_3D ( 'NONE', #23, #16, #218 ) ;
#163 = AXIS2_PLACEMENT_3D ( 'NONE', #127, #78, #72 ) ;
#164 = CALENDAR_DATE ( 2021, 2, 12 ) ;
#165 = CARTESIAN_POINT ( 'NONE',  ( 5.237222008264700285E-13, -1.836970198721029747E-14, 150.0000000000000000 ) ) ;
#166 = VERTEX_POINT ( 'NONE', #257 ) ;
#167 = PERSON_AND_ORGANIZATION ( #121, #15 ) ;
#168 = ORIENTED_EDGE ( 'NONE', *, *, #232, .T. ) ;
#169 = DATE_AND_TIME ( #236, #219 ) ;
#170 = CARTESIAN_POINT ( 'NONE',  ( 3.730789202342417614E-13, 5.999999999999983125, 106.8540496217739104 ) ) ;
#171 = EDGE_LOOP ( 'NONE', ( #3 ) ) ;
#172 = UNCERTAINTY_MEASURE_WITH_UNIT (LENGTH_MEASURE( 1.000000000000000082E-05 ), #58, 'distance_accuracy_value', 'NONE');
#173 = ORIENTED_EDGE ( 'NONE', *, *, #25, .T. ) ;
#174 = EDGE_LOOP ( 'NONE', ( #22 ) ) ;
#175 = APPROVAL_PERSON_ORGANIZATION ( #182, #222, #209 ) ;
#176 = CARTESIAN_POINT ( 'NONE',  ( 7.389742427871334505E-14, -2.591972728061204022E-15, 21.16506350946114523 ) ) ;
#177 = FACE_OUTER_BOUND ( 'NONE', #89, .T. ) ;
#178 = DIRECTION ( 'NONE',  ( -4.275831445896958607E-31, -1.000000000000000000, -1.224646799147353207E-16 ) ) ;
#179 = AXIS2_PLACEMENT_3D ( 'NONE', #245, #24, #50 ) ;
#180 = DIRECTION ( 'NONE',  ( -3.491481338843133355E-15, 1.224646799147353207E-16, -1.000000000000000000 ) ) ;
#181 = DIRECTION ( 'NONE',  ( -3.491481338843133355E-15, 1.224646799147353207E-16, -1.000000000000000000 ) ) ;
#182 = PERSON_AND_ORGANIZATION ( #121, #15 ) ;
#183 = DIRECTION ( 'NONE',  ( -3.491481338843133355E-15, 1.224646799147353207E-16, -1.000000000000000000 ) ) ;
#184 = APPLICATION_PROTOCOL_DEFINITION ( 'international standard', 'config_control_design', 1994, #258 ) ;
#185 = AXIS2_PLACEMENT_3D ( 'NONE', #93, #226, #224 ) ;
#186 = PERSON_AND_ORGANIZATION ( #121, #15 ) ;
#187 = CARTESIAN_POINT ( 'NONE',  ( 5.237222008264700285E-13, 5.999999999999983125, 150.0000000000000000 ) ) ;
#188 = EDGE_LOOP ( 'NONE', ( #64 ) ) ;
#189 = CIRCLE ( 'NONE', #10, 5.000000000000000888 ) ;
#190 = EDGE_LOOP ( 'NONE', ( #43 ) ) ;
#191 = PRODUCT_DEFINITION_SHAPE ( 'NONE', 'NONE',  #216 ) ;
#192 = AXIS2_PLACEMENT_3D ( 'NONE', #9, #180, #74 ) ;
#193 = EDGE_LOOP ( 'NONE', ( #168 ) ) ;
#194 = ORIENTED_EDGE ( 'NONE', *, *, #57, .T. ) ;
#195 = MANIFOLD_SOLID_BREP ( 'Corps-Déplacer/Copier1[1]', #239 ) ;
#196 = MANIFOLD_SOLID_BREP ( 'Corps-Déplacer/Copier1[2]', #279 ) ;
#197 = AXIS2_PLACEMENT_3D ( 'NONE', #176, #181, #223 ) ;
#198 = CARTESIAN_POINT ( 'NONE',  ( 3.730789202342417614E-13, -1.308584698452378832E-14, 106.8540496217739104 ) ) ;
#199 = EDGE_CURVE ( 'NONE', #107, #107, #253, .T. ) ;
#200 = DIRECTION ( 'NONE',  ( 3.491481338843133355E-15, -1.224646799147353207E-16, 1.000000000000000000 ) ) ;
#201 = DIRECTION ( 'NONE',  ( -3.491481338843133355E-15, 1.224646799147353207E-16, -1.000000000000000000 ) ) ;
#202 = ADVANCED_FACE ( 'NONE', ( #71, #29 ), #32, .T. ) ;
#203 = CARTESIAN_POINT ( 'NONE',  ( 1.095429344038129529E-30, -3.842248918657766389E-32, 3.137434337257803620E-16 ) ) ;
#204 = CARTESIAN_POINT ( 'NONE',  ( 6.633814543801952113E-14, 5.999999999999997335, 19.00000000000000000 ) ) ;
#205 = DIRECTION ( 'NONE',  ( -4.275831445896958607E-31, -1.000000000000000000, -1.224646799147353207E-16 ) ) ;
#206 = PRODUCT_DEFINITION_FORMATION_WITH_SPECIFIED_SOURCE ( 'ANY', '', #282, .NOT_KNOWN. ) ;
#207 = PERSON_AND_ORGANIZATION_ROLE ( 'design_owner' ) ;
#208 = COORDINATED_UNIVERSAL_TIME_OFFSET ( 1, 0, .AHEAD. ) ;
#209 = APPROVAL_ROLE ( '' ) ;
#210 = LOCAL_TIME ( 9, 51, 6.000000000000000000, #133 ) ;
#211 = AXIS2_PLACEMENT_3D ( 'NONE', #51, #98, #271 ) ;
#212 = COORDINATED_UNIVERSAL_TIME_OFFSET ( 1, 0, .AHEAD. ) ;
#213 = VERTEX_POINT ( 'NONE', #187 ) ;
#214 = FACE_OUTER_BOUND ( 'NONE', #67, .T. ) ;
#215 = SECURITY_CLASSIFICATION_LEVEL ( 'unclassified' ) ;
#216 = PRODUCT_DEFINITION ( 'UNKNOWN', '', #206, #70 ) ;
#217 = PERSON_AND_ORGANIZATION ( #121, #15 ) ;
#218 = DIRECTION ( 'NONE',  ( 4.275831445896958607E-31, 1.000000000000000000, 1.224646799147353207E-16 ) ) ;
#219 = LOCAL_TIME ( 9, 51, 6.000000000000000000, #212 ) ;
#220 = FACE_OUTER_BOUND ( 'NONE', #267, .T. ) ;
#221 = DIRECTION ( 'NONE',  ( 3.491481338843133355E-15, -1.224646799147353207E-16, 1.000000000000000000 ) ) ;
#222 = APPROVAL ( #274, 'UNSPECIFIED' ) ;
#223 = DIRECTION ( 'NONE',  ( 0.0000000000000000000, 1.000000000000000000, 0.0000000000000000000 ) ) ;
#224 = DIRECTION ( 'NONE',  ( 4.275831445896958607E-31, 1.000000000000000000, 1.224646799147353207E-16 ) ) ;
#225 = FACE_OUTER_BOUND ( 'NONE', #105, .T. ) ;
#226 = DIRECTION ( 'NONE',  ( -3.491481338843133355E-15, 1.224646799147353207E-16, -1.000000000000000000 ) ) ;
#227 = CIRCLE ( 'NONE', #73, 6.000000000000000888 ) ;
#228 = CALENDAR_DATE ( 2021, 2, 12 ) ;
#229 = DIRECTION ( 'NONE',  ( 3.491481338843133355E-15, -1.224646799147353207E-16, 1.000000000000000000 ) ) ;
#230 = ADVANCED_FACE ( 'NONE', ( #11 ), #111, .F. ) ;
#231 = CIRCLE ( 'NONE', #26, 5.999999999999997335 ) ;
#232 = EDGE_CURVE ( 'NONE', #39, #39, #110, .T. ) ;
#233 = TOROIDAL_SURFACE ( 'NONE', #185, 6.750000000000000888, 2.000000000000003109 ) ;
#234 = DATE_TIME_ROLE ( 'creation_date' ) ;
#235 = ADVANCED_FACE ( 'NONE', ( #155 ), #246, .F. ) ;
#236 = CALENDAR_DATE ( 2021, 2, 12 ) ;
#237 = ORIENTED_EDGE ( 'NONE', *, *, #275, .F. ) ;
#238 = APPROVAL_DATE_TIME ( #169, #157 ) ;
#239 = CLOSED_SHELL ( 'NONE', ( #252, #116, #17, #95, #60, #132, #235 ) ) ;
#240 = DIRECTION ( 'NONE',  ( 0.0000000000000000000, 1.000000000000000000, 0.0000000000000000000 ) ) ;
#241 = ORIENTED_EDGE ( 'NONE', *, *, #57, .F. ) ;
#242 = CC_DESIGN_PERSON_AND_ORGANIZATION_ASSIGNMENT ( #139, #207, ( #282 ) ) ;
#243 = DIRECTION ( 'NONE',  ( 3.491481338843133355E-15, -1.224646799147353207E-16, 1.000000000000000000 ) ) ;
#244 = CONICAL_SURFACE ( 'NONE', #68, 5.999999999999997335, 0.7853981633974439491 ) ;
#245 = CARTESIAN_POINT ( 'NONE',  ( 3.666055405785289897E-13, -1.285879139104720791E-14, 105.0000000000000000 ) ) ;
#246 = PLANE ( 'NONE',  #211 ) ;
#247 = DIRECTION ( 'NONE',  ( 4.275831445896958607E-31, 1.000000000000000000, 1.224646799147353207E-16 ) ) ;
#248 = PERSON_AND_ORGANIZATION ( #121, #15 ) ;
#249 = DIRECTION ( 'NONE',  ( 4.493836536903552367E-31, 1.000000000000000000, 1.264902534566422415E-16 ) ) ;
#250 = CC_DESIGN_APPROVAL ( #83, ( #206 ) ) ;
#251 = CARTESIAN_POINT ( 'NONE',  ( 5.272136821653131493E-13, 4.999999999999983125, 151.0000000000000000 ) ) ;
#252 = ADVANCED_FACE ( 'NONE', ( #52 ), #131, .F. ) ;
#253 = CIRCLE ( 'NONE', #179, 4.750000000000000888 ) ;
#254 = CARTESIAN_POINT ( 'NONE',  ( 7.389742427871334505E-14, 4.749999999999986677, 21.16506350946114523 ) ) ;
#255 = CARTESIAN_POINT ( 'NONE',  ( 3.666055405785289897E-13, 4.749999999999987566, 105.0000000000000000 ) ) ;
#256 = CC_DESIGN_DATE_AND_TIME_ASSIGNMENT ( #119, #123, ( #82 ) ) ;
#257 = CARTESIAN_POINT ( 'NONE',  ( 6.633814543801952113E-14, 5.999999999999997335, 19.00000000000000000 ) ) ;
#258 = APPLICATION_CONTEXT ( 'configuration controlled 3d designs of mechanical parts and assemblies' ) ;
#259 = ORIENTED_EDGE ( 'NONE', *, *, #21, .T. ) ;
#260 = COORDINATED_UNIVERSAL_TIME_OFFSET ( 1, 0, .AHEAD. ) ;
#261 = EDGE_LOOP ( 'NONE', ( #237 ) ) ;
#262 = VERTEX_POINT ( 'NONE', #90 ) ;
#263 = ORIENTED_EDGE ( 'NONE', *, *, #232, .F. ) ;
#264 = EDGE_LOOP ( 'NONE', ( #62 ) ) ;
#265 = EDGE_CURVE ( 'NONE', #213, #213, #227, .T. ) ;
#266 = AXIS2_PLACEMENT_3D ( 'NONE', #159, #229, #205 ) ;
#267 = EDGE_LOOP ( 'NONE', ( #19 ) ) ;
#268 = FACE_OUTER_BOUND ( 'NONE', #281, .T. ) ;
#269 = CARTESIAN_POINT ( 'NONE',  ( 0.0000000000000000000, 0.0000000000000000000, 0.0000000000000000000 ) ) ;
#270 = AXIS2_PLACEMENT_3D ( 'NONE', #203, #200, #114 ) ;
#271 = DIRECTION ( 'NONE',  ( 4.275831445896958607E-31, 1.000000000000000000, 1.224646799147353207E-16 ) ) ;
#272 = DATE_AND_TIME ( #164, #128 ) ;
#273 = DIRECTION ( 'NONE',  ( 0.0000000000000000000, 1.000000000000000000, 0.0000000000000000000 ) ) ;
#274 = APPROVAL_STATUS ( 'not_yet_approved' ) ;
#275 = EDGE_CURVE ( 'NONE', #166, #166, #125, .T. ) ;
#276 = VERTEX_POINT ( 'NONE', #204 ) ;
#277 = AXIS2_PLACEMENT_3D ( 'NONE', #80, #134, #117 ) ;
#278 = EDGE_LOOP ( 'NONE', ( #263 ) ) ;
#279 = CLOSED_SHELL ( 'NONE', ( #230, #30, #202, #75 ) ) ;
#280 = PERSON_AND_ORGANIZATION_ROLE ( 'creator' ) ;
#281 = EDGE_LOOP ( 'NONE', ( #6 ) ) ;
#282 = PRODUCT ( '200647', '200647', '', ( #56 ) ) ;
#283 = AXIS2_PLACEMENT_3D ( 'NONE', #158, #243, #178 ) ;
ENDSEC;
END-ISO-10303-21;
