ISO-10303-21;
HEADER;
FILE_DESCRIPTION (( 'STEP AP203' ),
    '1' );
FILE_NAME ('200645.step',
    '2021-12-02T08:36:36',
    ( '' ),
    ( '' ),
    'SwSTEP 2.0',
    'SolidWorks 2019',
    '' );
FILE_SCHEMA (( 'CONFIG_CONTROL_DESIGN' ));
ENDSEC;

DATA;
#1 = DIRECTION ( 'NONE',  ( -3.491481338843133355E-15, 1.224646799147353207E-16, -1.000000000000000000 ) ) ;
#2 = DIRECTION ( 'NONE',  ( -4.275831445896958607E-31, -1.000000000000000000, -1.224646799147353207E-16 ) ) ;
#3 = DIRECTION ( 'NONE',  ( 0.0000000000000000000, 1.000000000000000000, 0.0000000000000000000 ) ) ;
#4 = ORIENTED_EDGE ( 'NONE', *, *, #73, .F. ) ;
#5 = CC_DESIGN_APPROVAL ( #56, ( #226 ) ) ;
#6 = APPLICATION_PROTOCOL_DEFINITION ( 'international standard', 'config_control_design', 1994, #81 ) ;
#7 = ORIENTED_EDGE ( 'NONE', *, *, #207, .F. ) ;
#8 = COORDINATED_UNIVERSAL_TIME_OFFSET ( 1, 0, .AHEAD. ) ;
#9 = CLOSED_SHELL ( 'NONE', ( #219, #45, #151, #144 ) ) ;
#10 = EDGE_LOOP ( 'NONE', ( #269 ) ) ;
#11 = DIRECTION ( 'NONE',  ( -3.491481338843133355E-15, 1.224646799147353207E-16, -1.000000000000000000 ) ) ;
#12 = ADVANCED_FACE ( 'NONE', ( #205, #15 ), #199, .T. ) ;
#13 = DIRECTION ( 'NONE',  ( -3.491481338843133355E-15, 1.224646799147353207E-16, -1.000000000000000000 ) ) ;
#14 = AXIS2_PLACEMENT_3D ( 'NONE', #237, #39, #61 ) ;
#15 = FACE_BOUND ( 'NONE', #99, .T. ) ;
#16 = PERSON_AND_ORGANIZATION ( #197, #198 ) ;
#17 = FACE_OUTER_BOUND ( 'NONE', #47, .T. ) ;
#18 = ORIENTED_EDGE ( 'NONE', *, *, #260, .F. ) ;
#19 = FACE_OUTER_BOUND ( 'NONE', #178, .T. ) ;
#20 = PLANE ( 'NONE',  #51 ) ;
#21 = DIRECTION ( 'NONE',  ( 3.491481338843133355E-15, -1.224646799147353207E-16, 1.000000000000000000 ) ) ;
#22 = CYLINDRICAL_SURFACE ( 'NONE', #62, 5.749999999999998224 ) ;
#23 = AXIS2_PLACEMENT_3D ( 'NONE', #172, #41, #3 ) ;
#24 = CARTESIAN_POINT ( 'NONE',  ( 0.0000000000000000000, 0.0000000000000000000, 0.0000000000000000000 ) ) ;
#25 = CARTESIAN_POINT ( 'NONE',  ( 6.633814543801952113E-14, 5.749999999999997335, 19.00000000000000000 ) ) ;
#26 = PERSON_AND_ORGANIZATION ( #197, #198 ) ;
#27 = APPROVAL_STATUS ( 'not_yet_approved' ) ;
#28 = ADVANCED_FACE ( 'NONE', ( #31, #255 ), #277, .F. ) ;
#29 = CC_DESIGN_SECURITY_CLASSIFICATION ( #97, ( #220 ) ) ;
#30 = ORIENTED_EDGE ( 'NONE', *, *, #77, .F. ) ;
#31 = FACE_OUTER_BOUND ( 'NONE', #70, .T. ) ;
#32 = APPROVAL_ROLE ( '' ) ;
#33 = DIRECTION ( 'NONE',  ( 0.0000000000000000000, 1.000000000000000000, 0.0000000000000000000 ) ) ;
#34 = CC_DESIGN_PERSON_AND_ORGANIZATION_ASSIGNMENT ( #142, #168, ( #220 ) ) ;
#35 = CARTESIAN_POINT ( 'NONE',  ( 0.0000000000000000000, 0.0000000000000000000, 0.0000000000000000000 ) ) ;
#36 = APPROVAL_PERSON_ORGANIZATION ( #16, #188, #32 ) ;
#37 = CONICAL_SURFACE ( 'NONE', #176, 5.000000000000000888, 0.7853981633974339571 ) ;
#38 = CALENDAR_DATE ( 2021, 2, 12 ) ;
#39 = DIRECTION ( 'NONE',  ( -3.491481338843133355E-15, 1.224646799147353207E-16, -1.000000000000000000 ) ) ;
#40 = PERSON_AND_ORGANIZATION ( #197, #198 ) ;
#41 = DIRECTION ( 'NONE',  ( -3.491481338843133355E-15, 1.224646799147353207E-16, -1.000000000000000000 ) ) ;
#42 = FACE_OUTER_BOUND ( 'NONE', #222, .T. ) ;
#43 = CARTESIAN_POINT ( 'NONE',  ( 3.351822085289408021E-13, 4.749999999999989342, 96.00000000000000000 ) ) ;
#44 = ORIENTED_EDGE ( 'NONE', *, *, #207, .T. ) ;
#45 = ADVANCED_FACE ( 'NONE', ( #275, #274 ), #71, .T. ) ;
#46 = VERTEX_POINT ( 'NONE', #94 ) ;
#47 = EDGE_LOOP ( 'NONE', ( #7 ) ) ;
#48 = AXIS2_PLACEMENT_3D ( 'NONE', #123, #57, #212 ) ;
#49 = ORIENTED_EDGE ( 'NONE', *, *, #96, .F. ) ;
#50 = EDGE_LOOP ( 'NONE', ( #44 ) ) ;
#51 = AXIS2_PLACEMENT_3D ( 'NONE', #152, #83, #2 ) ;
#52 = DATE_TIME_ROLE ( 'creation_date' ) ;
#53 = PLANE ( 'NONE',  #117 ) ;
#54 = ORIENTED_EDGE ( 'NONE', *, *, #100, .F. ) ;
#55 =( GEOMETRIC_REPRESENTATION_CONTEXT ( 3 ) GLOBAL_UNCERTAINTY_ASSIGNED_CONTEXT ( ( #147 ) ) GLOBAL_UNIT_ASSIGNED_CONTEXT ( ( #270, #115, #266 ) ) REPRESENTATION_CONTEXT ( 'NONE', 'WORKASPACE' ) );
#56 = APPROVAL ( #27, 'UNSPECIFIED' ) ;
#57 = DIRECTION ( 'NONE',  ( 3.491481338843133355E-15, -1.224646799147353207E-16, 1.000000000000000000 ) ) ;
#58 = FACE_OUTER_BOUND ( 'NONE', #154, .T. ) ;
#59 = CC_DESIGN_APPROVAL ( #188, ( #220 ) ) ;
#60 = CYLINDRICAL_SURFACE ( 'NONE', #14, 4.749999999999995559 ) ;
#61 = DIRECTION ( 'NONE',  ( 4.275831445896958607E-31, 1.000000000000000000, 1.224646799147353207E-16 ) ) ;
#62 = AXIS2_PLACEMENT_3D ( 'NONE', #35, #174, #258 ) ;
#63 = DIRECTION ( 'NONE',  ( -3.491481338843133355E-15, 1.224646799147353207E-16, -1.000000000000000000 ) ) ;
#64 = APPLICATION_PROTOCOL_DEFINITION ( 'international standard', 'config_control_design', 1994, #68 ) ;
#65 = ORIENTED_EDGE ( 'NONE', *, *, #166, .F. ) ;
#66 = PRODUCT ( '200645', '200645', '', ( #221 ) ) ;
#67 = APPROVAL ( #173, 'UNSPECIFIED' ) ;
#68 = APPLICATION_CONTEXT ( 'configuration controlled 3d designs of mechanical parts and assemblies' ) ;
#69 = ORIENTED_EDGE ( 'NONE', *, *, #254, .T. ) ;
#70 = EDGE_LOOP ( 'NONE', ( #49 ) ) ;
#71 = CONICAL_SURFACE ( 'NONE', #109, 5.749999999999997335, 0.7853981633974435050 ) ;
#72 = DATE_AND_TIME ( #92, #124 ) ;
#73 = EDGE_CURVE ( 'NONE', #130, #130, #240, .T. ) ;
#74 = DIRECTION ( 'NONE',  ( -4.019332057851624516E-31, -1.000000000000000000, -1.131341397376179065E-16 ) ) ;
#75 = CIRCLE ( 'NONE', #170, 5.250000000000002665 ) ;
#76 = DIRECTION ( 'NONE',  ( -3.491481338843133355E-15, 1.224646799147353207E-16, -1.000000000000000000 ) ) ;
#77 = EDGE_CURVE ( 'NONE', #195, #195, #75, .T. ) ;
#78 = DATE_TIME_ROLE ( 'classification_date' ) ;
#79 = PLANE ( 'NONE',  #48 ) ;
#80 = CARTESIAN_POINT ( 'NONE',  ( 4.957903501157248607E-13, -1.738998454789241313E-14, 142.0000000000000000 ) ) ;
#81 = APPLICATION_CONTEXT ( 'configuration controlled 3d designs of mechanical parts and assemblies' ) ;
#82 = COORDINATED_UNIVERSAL_TIME_OFFSET ( 1, 0, .AHEAD. ) ;
#83 = DIRECTION ( 'NONE',  ( 3.491481338843133355E-15, -1.224646799147353207E-16, 1.000000000000000000 ) ) ;
#84 = CIRCLE ( 'NONE', #23, 4.749999999999990230 ) ;
#85 = DIRECTION ( 'NONE',  ( -3.491481338843133355E-15, 1.224646799147353207E-16, -1.000000000000000000 ) ) ;
#86 = CARTESIAN_POINT ( 'NONE',  ( 4.922988687768816390E-13, -1.726751986797767482E-14, 140.9999999999999716 ) ) ;
#87 = CARTESIAN_POINT ( 'NONE',  ( 4.957903501157248607E-13, 4.999999999999984013, 142.0000000000000000 ) ) ;
#88 = EDGE_LOOP ( 'NONE', ( #95 ) ) ;
#89 = CC_DESIGN_PERSON_AND_ORGANIZATION_ASSIGNMENT ( #186, #238, ( #220 ) ) ;
#90 = AXIS2_PLACEMENT_3D ( 'NONE', #86, #63, #175 ) ;
#91 = EDGE_LOOP ( 'NONE', ( #30 ) ) ;
#92 = CALENDAR_DATE ( 2021, 2, 12 ) ;
#93 = AXIS2_PLACEMENT_3D ( 'NONE', #213, #21, #239 ) ;
#94 = CARTESIAN_POINT ( 'NONE',  ( 4.922988687768816390E-13, 5.999999999999984013, 140.9999999999999716 ) ) ;
#95 = ORIENTED_EDGE ( 'NONE', *, *, #166, .T. ) ;
#96 = EDGE_CURVE ( 'NONE', #111, #111, #133, .T. ) ;
#97 = SECURITY_CLASSIFICATION ( '', '', #102 ) ;
#98 = DIRECTION ( 'NONE',  ( -3.491481338843133355E-15, 1.224646799147353207E-16, -1.000000000000000000 ) ) ;
#99 = EDGE_LOOP ( 'NONE', ( #69 ) ) ;
#100 = EDGE_CURVE ( 'NONE', #265, #265, #158, .T. ) ;
#101 = CARTESIAN_POINT ( 'NONE',  ( 3.351822085289408021E-13, -1.175660927181459158E-14, 96.00000000000000000 ) ) ;
#102 = SECURITY_CLASSIFICATION_LEVEL ( 'unclassified' ) ;
#103 = DIRECTION ( 'NONE',  ( 4.275831445896958607E-31, 1.000000000000000000, 1.224646799147353207E-16 ) ) ;
#104 = DATE_AND_TIME ( #216, #273 ) ;
#105 = CARTESIAN_POINT ( 'NONE',  ( 6.633814543801952113E-14, -2.326828918379970970E-15, 19.00000000000000000 ) ) ;
#106 = CYLINDRICAL_SURFACE ( 'NONE', #206, 5.999999999999998224 ) ;
#107 = ADVANCED_FACE ( 'NONE', ( #17 ), #53, .F. ) ;
#108 = DIRECTION ( 'NONE',  ( -3.491481338843133355E-15, 1.224646799147353207E-16, -1.000000000000000000 ) ) ;
#109 = AXIS2_PLACEMENT_3D ( 'NONE', #184, #276, #74 ) ;
#110 = CC_DESIGN_PERSON_AND_ORGANIZATION_ASSIGNMENT ( #26, #113, ( #66 ) ) ;
#111 = VERTEX_POINT ( 'NONE', #43 ) ;
#112 = DIRECTION ( 'NONE',  ( 0.0000000000000000000, 0.0000000000000000000, 1.000000000000000000 ) ) ;
#113 = PERSON_AND_ORGANIZATION_ROLE ( 'design_owner' ) ;
#114 = EDGE_LOOP ( 'NONE', ( #132 ) ) ;
#115 =( NAMED_UNIT ( * ) PLANE_ANGLE_UNIT ( ) SI_UNIT ( $, .RADIAN. ) );
#116 = EDGE_LOOP ( 'NONE', ( #65 ) ) ;
#117 = AXIS2_PLACEMENT_3D ( 'NONE', #165, #108, #103 ) ;
#118 = CC_DESIGN_DATE_AND_TIME_ASSIGNMENT ( #261, #78, ( #97 ) ) ;
#119 = ADVANCED_FACE ( 'NONE', ( #19, #263 ), #37, .T. ) ;
#120 = LOCAL_TIME ( 9, 36, 36.00000000000000000, #236 ) ;
#121 = CALENDAR_DATE ( 2021, 2, 12 ) ;
#122 = DIRECTION ( 'NONE',  ( -3.491481338843133355E-15, 1.224646799147353207E-16, -1.000000000000000000 ) ) ;
#123 = CARTESIAN_POINT ( 'NONE',  ( 6.633814543801952113E-14, 4.311809375152836517E-32, 19.00000000000000000 ) ) ;
#124 = LOCAL_TIME ( 9, 36, 36.00000000000000000, #8 ) ;
#125 = PERSON_AND_ORGANIZATION ( #197, #198 ) ;
#126 = PLANE ( 'NONE',  #93 ) ;
#127 = PRODUCT_RELATED_PRODUCT_CATEGORY ( 'detail', '', ( #66 ) ) ;
#128 = FACE_OUTER_BOUND ( 'NONE', #249, .T. ) ;
#129 = FACE_OUTER_BOUND ( 'NONE', #157, .T. ) ;
#130 = VERTEX_POINT ( 'NONE', #25 ) ;
#131 = EDGE_LOOP ( 'NONE', ( #4 ) ) ;
#132 = ORIENTED_EDGE ( 'NONE', *, *, #100, .T. ) ;
#133 = CIRCLE ( 'NONE', #191, 4.750000000000001776 ) ;
#134 = VERTEX_POINT ( 'NONE', #177 ) ;
#135 = CIRCLE ( 'NONE', #139, 5.749999999999997335 ) ;
#136 = ADVANCED_FACE ( 'NONE', ( #128 ), #79, .F. ) ;
#137 = APPROVAL_DATE_TIME ( #72, #56 ) ;
#138 = CARTESIAN_POINT ( 'NONE',  ( 7.238556851057459289E-14, -2.538943966124957333E-15, 20.73205080756891761 ) ) ;
#139 = AXIS2_PLACEMENT_3D ( 'NONE', #278, #169, #193 ) ;
#140 = COORDINATED_UNIVERSAL_TIME_OFFSET ( 1, 0, .AHEAD. ) ;
#141 = DIRECTION ( 'NONE',  ( -3.491481338843133355E-15, 1.224646799147353207E-16, -1.000000000000000000 ) ) ;
#142 = PERSON_AND_ORGANIZATION ( #197, #198 ) ;
#143 = FACE_OUTER_BOUND ( 'NONE', #116, .T. ) ;
#144 = ADVANCED_FACE ( 'NONE', ( #143 ), #20, .T. ) ;
#145 = CALENDAR_DATE ( 2021, 2, 12 ) ;
#146 = DIRECTION ( 'NONE',  ( 0.0000000000000000000, 1.000000000000000000, 0.0000000000000000000 ) ) ;
#147 = UNCERTAINTY_MEASURE_WITH_UNIT (LENGTH_MEASURE( 1.000000000000000082E-05 ), #270, 'distance_accuracy_value', 'NONE');
#148 = COORDINATED_UNIVERSAL_TIME_OFFSET ( 1, 0, .AHEAD. ) ;
#149 = FACE_OUTER_BOUND ( 'NONE', #244, .T. ) ;
#150 = DIRECTION ( 'NONE',  ( 0.0000000000000000000, 1.000000000000000000, 0.0000000000000000000 ) ) ;
#151 = ADVANCED_FACE ( 'NONE', ( #217, #215 ), #22, .T. ) ;
#152 = CARTESIAN_POINT ( 'NONE',  ( 6.633814543801952113E-14, 4.311809375152836517E-32, 19.00000000000000000 ) ) ;
#153 = CIRCLE ( 'NONE', #271, 5.750000000000000000 ) ;
#154 = EDGE_LOOP ( 'NONE', ( #250 ) ) ;
#155 = CARTESIAN_POINT ( 'NONE',  ( 0.0000000000000000000, 0.0000000000000000000, 0.0000000000000000000 ) ) ;
#156 = ORIENTED_EDGE ( 'NONE', *, *, #260, .T. ) ;
#157 = EDGE_LOOP ( 'NONE', ( #156 ) ) ;
#158 = CIRCLE ( 'NONE', #203, 5.999999999999994671 ) ;
#159 = VERTEX_POINT ( 'NONE', #87 ) ;
#160 = DIRECTION ( 'NONE',  ( 0.0000000000000000000, 1.000000000000000000, 0.0000000000000000000 ) ) ;
#161 = LOCAL_TIME ( 9, 36, 36.00000000000000000, #140 ) ;
#162 = CARTESIAN_POINT ( 'NONE',  ( 6.633814543801952113E-14, -2.326828918379970970E-15, 19.00000000000000000 ) ) ;
#163 = AXIS2_PLACEMENT_3D ( 'NONE', #162, #141, #33 ) ;
#164 = APPROVAL_ROLE ( '' ) ;
#165 = CARTESIAN_POINT ( 'NONE',  ( 4.957903501157248607E-13, 3.749399456654618840E-32, 142.0000000000000000 ) ) ;
#166 = EDGE_CURVE ( 'NONE', #134, #134, #153, .T. ) ;
#167 = EDGE_CURVE ( 'NONE', #248, #248, #135, .T. ) ;
#168 = PERSON_AND_ORGANIZATION_ROLE ( 'design_supplier' ) ;
#169 = DIRECTION ( 'NONE',  ( -3.491481338843133355E-15, 1.224646799147353207E-16, -1.000000000000000000 ) ) ;
#170 = AXIS2_PLACEMENT_3D ( 'NONE', #256, #122, #209 ) ;
#171 = APPROVAL_DATE_TIME ( #104, #188 ) ;
#172 = CARTESIAN_POINT ( 'NONE',  ( 7.238556851057459289E-14, -2.538943966124957333E-15, 20.73205080756891761 ) ) ;
#173 = APPROVAL_STATUS ( 'not_yet_approved' ) ;
#174 = DIRECTION ( 'NONE',  ( -3.491481338843133355E-15, 1.224646799147353207E-16, -1.000000000000000000 ) ) ;
#175 = DIRECTION ( 'NONE',  ( 0.0000000000000000000, 1.000000000000000000, 0.0000000000000000000 ) ) ;
#176 = AXIS2_PLACEMENT_3D ( 'NONE', #80, #280, #150 ) ;
#177 = CARTESIAN_POINT ( 'NONE',  ( 6.633814543801952113E-14, 5.749999999999997335, 19.00000000000000000 ) ) ;
#178 = EDGE_LOOP ( 'NONE', ( #18 ) ) ;
#179 = CARTESIAN_POINT ( 'NONE',  ( 1.745740669421566678E-15, 5.749999999999997335, 0.5000000000000000000 ) ) ;
#180 = CIRCLE ( 'NONE', #90, 6.000000000000000888 ) ;
#181 = EDGE_LOOP ( 'NONE', ( #246 ) ) ;
#182 = AXIS2_PLACEMENT_3D ( 'NONE', #155, #112, #196 ) ;
#183 = DIRECTION ( 'NONE',  ( 0.0000000000000000000, 1.000000000000000000, 0.0000000000000000000 ) ) ;
#184 = CARTESIAN_POINT ( 'NONE',  ( 1.745740669421564508E-15, -6.123233995736758640E-17, 0.4999999999999993339 ) ) ;
#185 = CLOSED_SHELL ( 'NONE', ( #136, #12, #210, #28, #232, #119, #107 ) ) ;
#186 = PERSON_AND_ORGANIZATION ( #197, #198 ) ;
#187 = DIRECTION ( 'NONE',  ( -3.491481338843133355E-15, 1.224646799147353207E-16, -1.000000000000000000 ) ) ;
#188 = APPROVAL ( #230, 'UNSPECIFIED' ) ;
#189 = DIRECTION ( 'NONE',  ( 0.0000000000000000000, 1.000000000000000000, 0.0000000000000000000 ) ) ;
#190 = MANIFOLD_SOLID_BREP ( 'Corps-Déplacer/Copier1[2]', #9 ) ;
#191 = AXIS2_PLACEMENT_3D ( 'NONE', #101, #76, #257 ) ;
#192 = ADVANCED_BREP_SHAPE_REPRESENTATION ( '200645', ( #283, #190, #182 ), #55 ) ;
#193 = DIRECTION ( 'NONE',  ( 4.019332057851624516E-31, 1.000000000000000000, 1.131341397376179065E-16 ) ) ;
#194 = CARTESIAN_POINT ( 'NONE',  ( 4.957903501157248607E-13, -1.738998454789241313E-14, 142.0000000000000000 ) ) ;
#195 = VERTEX_POINT ( 'NONE', #218 ) ;
#196 = DIRECTION ( 'NONE',  ( 1.000000000000000000, 0.0000000000000000000, 0.0000000000000000000 ) ) ;
#197 = PERSON ( 'UNSPECIFIED', 'UNSPECIFIED', 'UNSPECIFIED', ('UNSPECIFIED'), ('UNSPECIFIED'), ('UNSPECIFIED') ) ;
#198 = ORGANIZATION ( 'UNSPECIFIED', 'UNSPECIFIED', '' ) ;
#199 = CONICAL_SURFACE ( 'NONE', #264, 4.749999999999990230, 0.5235987755982931535 ) ;
#200 = CC_DESIGN_PERSON_AND_ORGANIZATION_ASSIGNMENT ( #125, #233, ( #97 ) ) ;
#201 = APPROVAL_ROLE ( '' ) ;
#202 = EDGE_LOOP ( 'NONE', ( #251 ) ) ;
#203 = AXIS2_PLACEMENT_3D ( 'NONE', #208, #11, #160 ) ;
#204 = DIRECTION ( 'NONE',  ( 4.275831445896958607E-31, 1.000000000000000000, 1.224646799147353207E-16 ) ) ;
#205 = FACE_OUTER_BOUND ( 'NONE', #131, .T. ) ;
#206 = AXIS2_PLACEMENT_3D ( 'NONE', #24, #85, #282 ) ;
#207 = EDGE_CURVE ( 'NONE', #159, #159, #224, .T. ) ;
#208 = CARTESIAN_POINT ( 'NONE',  ( 3.416555881846535738E-13, -1.198366486529116725E-14, 97.85404962177391042 ) ) ;
#209 = DIRECTION ( 'NONE',  ( 4.275831445896959482E-31, 1.000000000000000000, 1.224646799147353207E-16 ) ) ;
#210 = ADVANCED_FACE ( 'NONE', ( #58, #262 ), #60, .T. ) ;
#211 = AXIS2_PLACEMENT_3D ( 'NONE', #231, #13, #204 ) ;
#212 = DIRECTION ( 'NONE',  ( -4.275831445896958607E-31, -1.000000000000000000, -1.224646799147353207E-16 ) ) ;
#213 = CARTESIAN_POINT ( 'NONE',  ( 3.917829065585767722E-31, -1.374189451164539134E-32, 1.122110842180213441E-16 ) ) ;
#214 = APPROVAL_DATE_TIME ( #234, #67 ) ;
#215 = FACE_OUTER_BOUND ( 'NONE', #88, .T. ) ;
#216 = CALENDAR_DATE ( 2021, 2, 12 ) ;
#217 = FACE_OUTER_BOUND ( 'NONE', #10, .T. ) ;
#218 = CARTESIAN_POINT ( 'NONE',  ( 3.028377322213058170E-30, 5.250000000000002665, 8.673617379884035472E-16 ) ) ;
#219 = ADVANCED_FACE ( 'NONE', ( #149 ), #126, .F. ) ;
#220 = PRODUCT_DEFINITION_FORMATION_WITH_SPECIFIED_SOURCE ( 'ANY', '', #66, .NOT_KNOWN. ) ;
#221 = MECHANICAL_CONTEXT ( 'NONE', #68, 'mechanical' ) ;
#222 = EDGE_LOOP ( 'NONE', ( #54 ) ) ;
#223 = VERTEX_POINT ( 'NONE', #243 ) ;
#224 = CIRCLE ( 'NONE', #229, 5.000000000000000888 ) ;
#225 = APPROVAL_PERSON_ORGANIZATION ( #40, #67, #164 ) ;
#226 = PRODUCT_DEFINITION ( 'UNKNOWN', '', #220, #235 ) ;
#227 = PERSON_AND_ORGANIZATION ( #197, #198 ) ;
#228 = ORIENTED_EDGE ( 'NONE', *, *, #73, .T. ) ;
#229 = AXIS2_PLACEMENT_3D ( 'NONE', #194, #1, #146 ) ;
#230 = APPROVAL_STATUS ( 'not_yet_approved' ) ;
#231 = CARTESIAN_POINT ( 'NONE',  ( 3.351822085289408021E-13, -1.214306433183764966E-14, 96.00000000000000000 ) ) ;
#232 = ADVANCED_FACE ( 'NONE', ( #42, #129 ), #106, .T. ) ;
#233 = PERSON_AND_ORGANIZATION_ROLE ( 'classification_officer' ) ;
#234 = DATE_AND_TIME ( #38, #120 ) ;
#235 = DESIGN_CONTEXT ( 'detailed design', #81, 'design' ) ;
#236 = COORDINATED_UNIVERSAL_TIME_OFFSET ( 1, 0, .AHEAD. ) ;
#237 = CARTESIAN_POINT ( 'NONE',  ( 0.0000000000000000000, 0.0000000000000000000, 0.0000000000000000000 ) ) ;
#238 = PERSON_AND_ORGANIZATION_ROLE ( 'creator' ) ;
#239 = DIRECTION ( 'NONE',  ( -4.275831445896958607E-31, -1.000000000000000000, -1.224646799147353207E-16 ) ) ;
#240 = CIRCLE ( 'NONE', #163, 5.750000000000000000 ) ;
#241 = CARTESIAN_POINT ( 'NONE',  ( 3.416555881846535738E-13, 5.999999999999983125, 97.85404962177391042 ) ) ;
#242 = CC_DESIGN_DATE_AND_TIME_ASSIGNMENT ( #252, #52, ( #226 ) ) ;
#243 = CARTESIAN_POINT ( 'NONE',  ( 7.238556851057459289E-14, 4.749999999999987566, 20.73205080756891761 ) ) ;
#244 = EDGE_LOOP ( 'NONE', ( #267 ) ) ;
#245 = PERSON_AND_ORGANIZATION ( #197, #198 ) ;
#246 = ORIENTED_EDGE ( 'NONE', *, *, #96, .T. ) ;
#247 = CC_DESIGN_APPROVAL ( #67, ( #97 ) ) ;
#248 = VERTEX_POINT ( 'NONE', #179 ) ;
#249 = EDGE_LOOP ( 'NONE', ( #228 ) ) ;
#250 = ORIENTED_EDGE ( 'NONE', *, *, #254, .F. ) ;
#251 = ORIENTED_EDGE ( 'NONE', *, *, #167, .T. ) ;
#252 = DATE_AND_TIME ( #121, #161 ) ;
#253 = APPROVAL_PERSON_ORGANIZATION ( #245, #56, #201 ) ;
#254 = EDGE_CURVE ( 'NONE', #223, #223, #84, .T. ) ;
#255 = FACE_OUTER_BOUND ( 'NONE', #114, .T. ) ;
#256 = CARTESIAN_POINT ( 'NONE',  ( 7.835658131171535443E-31, -2.748378902329078268E-32, 2.244221684360426882E-16 ) ) ;
#257 = DIRECTION ( 'NONE',  ( 0.0000000000000000000, 1.000000000000000000, 0.0000000000000000000 ) ) ;
#258 = DIRECTION ( 'NONE',  ( 4.275831445896958607E-31, 1.000000000000000000, 1.224646799147353207E-16 ) ) ;
#259 = LOCAL_TIME ( 9, 36, 36.00000000000000000, #148 ) ;
#260 = EDGE_CURVE ( 'NONE', #46, #46, #180, .T. ) ;
#261 = DATE_AND_TIME ( #145, #259 ) ;
#262 = FACE_OUTER_BOUND ( 'NONE', #181, .T. ) ;
#263 = FACE_BOUND ( 'NONE', #50, .T. ) ;
#264 = AXIS2_PLACEMENT_3D ( 'NONE', #138, #98, #183 ) ;
#265 = VERTEX_POINT ( 'NONE', #241 ) ;
#266 =( NAMED_UNIT ( * ) SI_UNIT ( $, .STERADIAN. ) SOLID_ANGLE_UNIT ( ) );
#267 = ORIENTED_EDGE ( 'NONE', *, *, #77, .T. ) ;
#268 = PRODUCT_DEFINITION_SHAPE ( 'NONE', 'NONE',  #226 ) ;
#269 = ORIENTED_EDGE ( 'NONE', *, *, #167, .F. ) ;
#270 =( LENGTH_UNIT ( ) NAMED_UNIT ( * ) SI_UNIT ( .MILLI., .METRE. ) );
#271 = AXIS2_PLACEMENT_3D ( 'NONE', #105, #187, #189 ) ;
#272 = PERSON_AND_ORGANIZATION_ROLE ( 'creator' ) ;
#273 = LOCAL_TIME ( 9, 36, 36.00000000000000000, #82 ) ;
#274 = FACE_OUTER_BOUND ( 'NONE', #202, .T. ) ;
#275 = FACE_BOUND ( 'NONE', #91, .T. ) ;
#276 = DIRECTION ( 'NONE',  ( 3.491481338843133355E-15, -1.224646799147353207E-16, 1.000000000000000000 ) ) ;
#277 = TOROIDAL_SURFACE ( 'NONE', #211, 6.750000000000001776, 1.999999999999997113 ) ;
#278 = CARTESIAN_POINT ( 'NONE',  ( 1.745740669421564508E-15, -6.123233995736758640E-17, 0.4999999999999993339 ) ) ;
#279 = SHAPE_DEFINITION_REPRESENTATION ( #268, #192 ) ;
#280 = DIRECTION ( 'NONE',  ( -3.491481338843133355E-15, 1.224646799147353207E-16, -1.000000000000000000 ) ) ;
#281 = CC_DESIGN_PERSON_AND_ORGANIZATION_ASSIGNMENT ( #227, #272, ( #226 ) ) ;
#282 = DIRECTION ( 'NONE',  ( 4.275831445896958607E-31, 1.000000000000000000, 1.224646799147353207E-16 ) ) ;
#283 = MANIFOLD_SOLID_BREP ( 'Corps-Déplacer/Copier1[1]', #185 ) ;
ENDSEC;
END-ISO-10303-21;
