ISO-10303-21;
HEADER;
FILE_DESCRIPTION (( 'STEP AP203' ),
    '1' );
FILE_NAME ('200644.step',
    '2021-12-02T08:36:35',
    ( '' ),
    ( '' ),
    'SwSTEP 2.0',
    'SolidWorks 2019',
    '' );
FILE_SCHEMA (( 'CONFIG_CONTROL_DESIGN' ));
ENDSEC;

DATA;
#1 = VERTEX_POINT ( 'NONE', #166 ) ;
#2 = PERSON_AND_ORGANIZATION ( #29, #44 ) ;
#3 = EDGE_CURVE ( 'NONE', #235, #235, #254, .T. ) ;
#4 = APPROVAL_ROLE ( '' ) ;
#5 = MANIFOLD_SOLID_BREP ( 'Corps-Déplacer/Copier1[1]', #276 ) ;
#6 = APPROVAL_DATE_TIME ( #273, #278 ) ;
#7 = DIRECTION ( 'NONE',  ( -3.491481338843133355E-15, 1.224646799147353207E-16, -1.000000000000000000 ) ) ;
#8 = APPLICATION_PROTOCOL_DEFINITION ( 'international standard', 'config_control_design', 1994, #212 ) ;
#9 = COORDINATED_UNIVERSAL_TIME_OFFSET ( 1, 0, .AHEAD. ) ;
#10 = CARTESIAN_POINT ( 'NONE',  ( 3.416555881846535738E-13, -1.198366486529116725E-14, 97.85404962177391042 ) ) ;
#11 = FACE_OUTER_BOUND ( 'NONE', #270, .T. ) ;
#12 = AXIS2_PLACEMENT_3D ( 'NONE', #98, #97, #229 ) ;
#13 = AXIS2_PLACEMENT_3D ( 'NONE', #81, #144, #129 ) ;
#14 = DIRECTION ( 'NONE',  ( 4.275831445896958607E-31, 1.000000000000000000, 1.224646799147353207E-16 ) ) ;
#15 = AXIS2_PLACEMENT_3D ( 'NONE', #121, #123, #205 ) ;
#16 = FACE_BOUND ( 'NONE', #71, .T. ) ;
#17 = UNCERTAINTY_MEASURE_WITH_UNIT (LENGTH_MEASURE( 1.000000000000000082E-05 ), #126, 'distance_accuracy_value', 'NONE');
#18 = DIRECTION ( 'NONE',  ( -3.491481338843133355E-15, 1.224646799147353207E-16, -1.000000000000000000 ) ) ;
#19 = EDGE_CURVE ( 'NONE', #24, #24, #116, .T. ) ;
#20 = CARTESIAN_POINT ( 'NONE',  ( 6.633814543801952113E-14, 5.499999999999997335, 19.00000000000000000 ) ) ;
#21 = CC_DESIGN_APPROVAL ( #204, ( #91 ) ) ;
#22 = CARTESIAN_POINT ( 'NONE',  ( 4.957903501157248607E-13, 4.999999999999984013, 142.0000000000000000 ) ) ;
#23 = ADVANCED_FACE ( 'NONE', ( #151, #217 ), #99, .T. ) ;
#24 = VERTEX_POINT ( 'NONE', #232 ) ;
#25 = CIRCLE ( 'NONE', #265, 6.000000000000000888 ) ;
#26 = DIRECTION ( 'NONE',  ( 0.0000000000000000000, 1.000000000000000000, 0.0000000000000000000 ) ) ;
#27 = DIRECTION ( 'NONE',  ( -3.491481338843133355E-15, 1.224646799147353207E-16, -1.000000000000000000 ) ) ;
#28 = ADVANCED_FACE ( 'NONE', ( #275, #51 ), #30, .T. ) ;
#29 = PERSON ( 'UNSPECIFIED', 'UNSPECIFIED', 'UNSPECIFIED', ('UNSPECIFIED'), ('UNSPECIFIED'), ('UNSPECIFIED') ) ;
#30 = CYLINDRICAL_SURFACE ( 'NONE', #260, 4.749999999999995559 ) ;
#31 = EDGE_CURVE ( 'NONE', #66, #66, #127, .T. ) ;
#32 = CALENDAR_DATE ( 2021, 2, 12 ) ;
#33 = DIRECTION ( 'NONE',  ( 0.0000000000000000000, 1.000000000000000000, 0.0000000000000000000 ) ) ;
#34 = LOCAL_TIME ( 9, 36, 35.00000000000000000, #9 ) ;
#35 = PERSON_AND_ORGANIZATION ( #29, #44 ) ;
#36 = EDGE_CURVE ( 'NONE', #105, #105, #46, .T. ) ;
#37 = ADVANCED_FACE ( 'NONE', ( #11, #38 ), #43, .T. ) ;
#38 = FACE_OUTER_BOUND ( 'NONE', #171, .T. ) ;
#39 = AXIS2_PLACEMENT_3D ( 'NONE', #86, #124, #280 ) ;
#40 = DIRECTION ( 'NONE',  ( 0.0000000000000000000, 1.000000000000000000, 0.0000000000000000000 ) ) ;
#41 = EDGE_LOOP ( 'NONE', ( #169 ) ) ;
#42 = EDGE_LOOP ( 'NONE', ( #267 ) ) ;
#43 = CYLINDRICAL_SURFACE ( 'NONE', #108, 5.999999999999998224 ) ;
#44 = ORGANIZATION ( 'UNSPECIFIED', 'UNSPECIFIED', '' ) ;
#45 = APPLICATION_PROTOCOL_DEFINITION ( 'international standard', 'config_control_design', 1994, #54 ) ;
#46 = CIRCLE ( 'NONE', #138, 5.500000000000000000 ) ;
#47 = EDGE_CURVE ( 'NONE', #1, #1, #25, .T. ) ;
#48 = APPROVAL_STATUS ( 'not_yet_approved' ) ;
#49 = APPROVAL_ROLE ( '' ) ;
#50 = CIRCLE ( 'NONE', #184, 4.750000000000001776 ) ;
#51 = FACE_OUTER_BOUND ( 'NONE', #94, .T. ) ;
#52 = AXIS2_PLACEMENT_3D ( 'NONE', #82, #206, #104 ) ;
#53 = DATE_AND_TIME ( #244, #34 ) ;
#54 = APPLICATION_CONTEXT ( 'configuration controlled 3d designs of mechanical parts and assemblies' ) ;
#55 = PERSON_AND_ORGANIZATION_ROLE ( 'design_owner' ) ;
#56 = CALENDAR_DATE ( 2021, 2, 12 ) ;
#57 = DIRECTION ( 'NONE',  ( -4.275831445896958607E-31, -1.000000000000000000, -1.224646799147353207E-16 ) ) ;
#58 = EDGE_LOOP ( 'NONE', ( #73 ) ) ;
#59 = CARTESIAN_POINT ( 'NONE',  ( 4.922988687768816390E-13, -1.726751986797767482E-14, 140.9999999999999716 ) ) ;
#60 = ADVANCED_FACE ( 'NONE', ( #251 ), #119, .F. ) ;
#61 = DIRECTION ( 'NONE',  ( -3.491481338843133355E-15, 1.224646799147353207E-16, -1.000000000000000000 ) ) ;
#62 = AXIS2_PLACEMENT_3D ( 'NONE', #10, #213, #112 ) ;
#63 = CARTESIAN_POINT ( 'NONE',  ( 3.351822085289408021E-13, 4.749999999999989342, 96.00000000000000000 ) ) ;
#64 = PLANE ( 'NONE',  #13 ) ;
#65 = VERTEX_POINT ( 'NONE', #281 ) ;
#66 = VERTEX_POINT ( 'NONE', #22 ) ;
#67 = VERTEX_POINT ( 'NONE', #101 ) ;
#68 = APPROVAL_PERSON_ORGANIZATION ( #69, #204, #49 ) ;
#69 = PERSON_AND_ORGANIZATION ( #29, #44 ) ;
#70 = APPROVAL_DATE_TIME ( #268, #204 ) ;
#71 = EDGE_LOOP ( 'NONE', ( #72 ) ) ;
#72 = ORIENTED_EDGE ( 'NONE', *, *, #163, .F. ) ;
#73 = ORIENTED_EDGE ( 'NONE', *, *, #163, .T. ) ;
#74 = APPROVAL_DATE_TIME ( #247, #274 ) ;
#75 = DIRECTION ( 'NONE',  ( -3.491481338843133355E-15, 1.224646799147353207E-16, -1.000000000000000000 ) ) ;
#76 = DIRECTION ( 'NONE',  ( 0.0000000000000000000, 1.000000000000000000, 0.0000000000000000000 ) ) ;
#77 = ADVANCED_FACE ( 'NONE', ( #158, #142 ), #143, .T. ) ;
#78 = PRODUCT_DEFINITION_FORMATION_WITH_SPECIFIED_SOURCE ( 'ANY', '', #214, .NOT_KNOWN. ) ;
#79 = CIRCLE ( 'NONE', #238, 5.500000000000000000 ) ;
#80 = FACE_OUTER_BOUND ( 'NONE', #92, .T. ) ;
#81 = CARTESIAN_POINT ( 'NONE',  ( 4.452307996322888204E-31, -1.561659423997271609E-32, 1.275191692073632869E-16 ) ) ;
#82 = CARTESIAN_POINT ( 'NONE',  ( 6.633814543801952113E-14, 4.124339402320104042E-32, 19.00000000000000000 ) ) ;
#83 = EDGE_LOOP ( 'NONE', ( #172 ) ) ;
#84 = LOCAL_TIME ( 9, 36, 35.00000000000000000, #216 ) ;
#85 = CARTESIAN_POINT ( 'NONE',  ( 0.0000000000000000000, 0.0000000000000000000, 0.0000000000000000000 ) ) ;
#86 = CARTESIAN_POINT ( 'NONE',  ( 1.745740669421564903E-15, -6.123233995736759873E-17, 0.4999999999999994449 ) ) ;
#87 = PLANE ( 'NONE',  #52 ) ;
#88 = ORIENTED_EDGE ( 'NONE', *, *, #197, .T. ) ;
#89 = COORDINATED_UNIVERSAL_TIME_OFFSET ( 1, 0, .AHEAD. ) ;
#90 = AXIS2_PLACEMENT_3D ( 'NONE', #175, #7, #220 ) ;
#91 = SECURITY_CLASSIFICATION ( '', '', #154 ) ;
#92 = EDGE_LOOP ( 'NONE', ( #245 ) ) ;
#93 = PERSON_AND_ORGANIZATION ( #29, #44 ) ;
#94 = EDGE_LOOP ( 'NONE', ( #88 ) ) ;
#95 = PERSON_AND_ORGANIZATION ( #29, #44 ) ;
#96 = CARTESIAN_POINT ( 'NONE',  ( 0.0000000000000000000, 0.0000000000000000000, 0.0000000000000000000 ) ) ;
#97 = DIRECTION ( 'NONE',  ( -3.491481338843133355E-15, 1.224646799147353207E-16, -1.000000000000000000 ) ) ;
#98 = CARTESIAN_POINT ( 'NONE',  ( 8.904615992645776409E-31, -3.123318847994543217E-32, 2.550383384147265738E-16 ) ) ;
#99 = CONICAL_SURFACE ( 'NONE', #181, 4.749999999999990230, 0.5235987755982929315 ) ;
#100 = DIRECTION ( 'NONE',  ( -3.491481338843133355E-15, 1.224646799147353207E-16, -1.000000000000000000 ) ) ;
#101 = CARTESIAN_POINT ( 'NONE',  ( 1.745740669421567072E-15, 5.499999999999997335, 0.5000000000000001110 ) ) ;
#102 = DIRECTION ( 'NONE',  ( -3.491481338843133355E-15, 1.224646799147353207E-16, -1.000000000000000000 ) ) ;
#103 = AXIS2_PLACEMENT_3D ( 'NONE', #211, #102, #239 ) ;
#104 = DIRECTION ( 'NONE',  ( -4.275831445896958607E-31, -1.000000000000000000, -1.224646799147353207E-16 ) ) ;
#105 = VERTEX_POINT ( 'NONE', #208 ) ;
#106 = VERTEX_POINT ( 'NONE', #20 ) ;
#107 = EDGE_LOOP ( 'NONE', ( #262 ) ) ;
#108 = AXIS2_PLACEMENT_3D ( 'NONE', #277, #178, #14 ) ;
#109 = DIRECTION ( 'NONE',  ( 1.000000000000000000, 0.0000000000000000000, 0.0000000000000000000 ) ) ;
#110 = CC_DESIGN_APPROVAL ( #274, ( #159 ) ) ;
#111 = PERSON_AND_ORGANIZATION ( #29, #44 ) ;
#112 = DIRECTION ( 'NONE',  ( 0.0000000000000000000, 1.000000000000000000, 0.0000000000000000000 ) ) ;
#113 = CC_DESIGN_PERSON_AND_ORGANIZATION_ASSIGNMENT ( #95, #136, ( #159 ) ) ;
#114 = CARTESIAN_POINT ( 'NONE',  ( 7.087371274243584073E-14, -2.485915204188711433E-15, 20.29903810567668998 ) ) ;
#115 = SHAPE_DEFINITION_REPRESENTATION ( #173, #120 ) ;
#116 = CIRCLE ( 'NONE', #189, 4.749999999999990230 ) ;
#117 = AXIS2_PLACEMENT_3D ( 'NONE', #187, #128, #164 ) ;
#118 = EDGE_LOOP ( 'NONE', ( #257 ) ) ;
#119 = PLANE ( 'NONE',  #157 ) ;
#120 = ADVANCED_BREP_SHAPE_REPRESENTATION ( '200644', ( #5, #179, #201 ), #227 ) ;
#121 = CARTESIAN_POINT ( 'NONE',  ( 4.957903501157248607E-13, 3.749399456654618840E-32, 142.0000000000000000 ) ) ;
#122 = PLANE ( 'NONE',  #15 ) ;
#123 = DIRECTION ( 'NONE',  ( -3.491481338843133355E-15, 1.224646799147353207E-16, -1.000000000000000000 ) ) ;
#124 = DIRECTION ( 'NONE',  ( 3.491481338843133355E-15, -1.224646799147353207E-16, 1.000000000000000000 ) ) ;
#125 = ORIENTED_EDGE ( 'NONE', *, *, #131, .F. ) ;
#126 =( LENGTH_UNIT ( ) NAMED_UNIT ( * ) SI_UNIT ( .MILLI., .METRE. ) );
#127 = CIRCLE ( 'NONE', #90, 5.000000000000000888 ) ;
#128 = DIRECTION ( 'NONE',  ( -3.491481338843133355E-15, 1.224646799147353207E-16, -1.000000000000000000 ) ) ;
#129 = DIRECTION ( 'NONE',  ( -4.275831445896958607E-31, -1.000000000000000000, -1.224646799147353207E-16 ) ) ;
#130 = ORIENTED_EDGE ( 'NONE', *, *, #3, .F. ) ;
#131 = EDGE_CURVE ( 'NONE', #106, #106, #79, .T. ) ;
#132 = CALENDAR_DATE ( 2021, 2, 12 ) ;
#133 = CIRCLE ( 'NONE', #117, 5.499999999999997335 ) ;
#134 = EDGE_LOOP ( 'NONE', ( #165 ) ) ;
#135 = APPROVAL_STATUS ( 'not_yet_approved' ) ;
#136 = PERSON_AND_ORGANIZATION_ROLE ( 'creator' ) ;
#137 = APPROVAL_ROLE ( '' ) ;
#138 = AXIS2_PLACEMENT_3D ( 'NONE', #193, #75, #33 ) ;
#139 = DIRECTION ( 'NONE',  ( 0.0000000000000000000, 1.000000000000000000, 0.0000000000000000000 ) ) ;
#140 = DIRECTION ( 'NONE',  ( -3.491481338843133355E-15, 1.224646799147353207E-16, -1.000000000000000000 ) ) ;
#141 = CYLINDRICAL_SURFACE ( 'NONE', #200, 5.499999999999998224 ) ;
#142 = FACE_BOUND ( 'NONE', #42, .T. ) ;
#143 = CONICAL_SURFACE ( 'NONE', #195, 5.000000000000000888, 0.7853981633974339571 ) ;
#144 = DIRECTION ( 'NONE',  ( 3.491481338843133355E-15, -1.224646799147353207E-16, 1.000000000000000000 ) ) ;
#145 = VERTEX_POINT ( 'NONE', #63 ) ;
#146 = ORIENTED_EDGE ( 'NONE', *, *, #197, .F. ) ;
#147 =( NAMED_UNIT ( * ) SI_UNIT ( $, .STERADIAN. ) SOLID_ANGLE_UNIT ( ) );
#148 = FACE_OUTER_BOUND ( 'NONE', #191, .T. ) ;
#149 = ORIENTED_EDGE ( 'NONE', *, *, #31, .F. ) ;
#150 = DATE_TIME_ROLE ( 'creation_date' ) ;
#151 = FACE_OUTER_BOUND ( 'NONE', #134, .T. ) ;
#152 = EDGE_LOOP ( 'NONE', ( #149 ) ) ;
#153 = PERSON_AND_ORGANIZATION ( #29, #44 ) ;
#154 = SECURITY_CLASSIFICATION_LEVEL ( 'unclassified' ) ;
#155 = MECHANICAL_CONTEXT ( 'NONE', #54, 'mechanical' ) ;
#156 = ORIENTED_EDGE ( 'NONE', *, *, #36, .T. ) ;
#157 = AXIS2_PLACEMENT_3D ( 'NONE', #224, #253, #57 ) ;
#158 = FACE_OUTER_BOUND ( 'NONE', #41, .T. ) ;
#159 = PRODUCT_DEFINITION ( 'UNKNOWN', '', #78, #183 ) ;
#160 = ADVANCED_FACE ( 'NONE', ( #199 ), #122, .F. ) ;
#161 = FACE_OUTER_BOUND ( 'NONE', #107, .T. ) ;
#162 = FACE_OUTER_BOUND ( 'NONE', #118, .T. ) ;
#163 = EDGE_CURVE ( 'NONE', #65, #65, #249, .T. ) ;
#164 = DIRECTION ( 'NONE',  ( 4.202028969572153022E-31, 1.000000000000000000, 1.182766006347823602E-16 ) ) ;
#165 = ORIENTED_EDGE ( 'NONE', *, *, #36, .F. ) ;
#166 = CARTESIAN_POINT ( 'NONE',  ( 4.922988687768816390E-13, 5.999999999999984013, 140.9999999999999716 ) ) ;
#167 = PERSON_AND_ORGANIZATION_ROLE ( 'design_supplier' ) ;
#168 = EDGE_LOOP ( 'NONE', ( #252 ) ) ;
#169 = ORIENTED_EDGE ( 'NONE', *, *, #47, .F. ) ;
#170 = DATE_TIME_ROLE ( 'classification_date' ) ;
#171 = EDGE_LOOP ( 'NONE', ( #240 ) ) ;
#172 = ORIENTED_EDGE ( 'NONE', *, *, #19, .F. ) ;
#173 = PRODUCT_DEFINITION_SHAPE ( 'NONE', 'NONE',  #159 ) ;
#174 = CC_DESIGN_PERSON_AND_ORGANIZATION_ASSIGNMENT ( #93, #266, ( #91 ) ) ;
#175 = CARTESIAN_POINT ( 'NONE',  ( 4.957903501157248607E-13, -1.738998454789241313E-14, 142.0000000000000000 ) ) ;
#176 = COORDINATED_UNIVERSAL_TIME_OFFSET ( 1, 0, .AHEAD. ) ;
#177 = CARTESIAN_POINT ( 'NONE',  ( 7.087371274243584073E-14, -2.485915204188711433E-15, 20.29903810567668998 ) ) ;
#178 = DIRECTION ( 'NONE',  ( -3.491481338843133355E-15, 1.224646799147353207E-16, -1.000000000000000000 ) ) ;
#179 = MANIFOLD_SOLID_BREP ( 'Corps-Déplacer/Copier1[2]', #231 ) ;
#180 = ADVANCED_FACE ( 'NONE', ( #80, #161 ), #141, .T. ) ;
#181 = AXIS2_PLACEMENT_3D ( 'NONE', #114, #242, #139 ) ;
#182 = FACE_OUTER_BOUND ( 'NONE', #168, .T. ) ;
#183 = DESIGN_CONTEXT ( 'detailed design', #212, 'design' ) ;
#184 = AXIS2_PLACEMENT_3D ( 'NONE', #186, #18, #210 ) ;
#185 = CC_DESIGN_APPROVAL ( #278, ( #78 ) ) ;
#186 = CARTESIAN_POINT ( 'NONE',  ( 3.351822085289408021E-13, -1.175660927181459158E-14, 96.00000000000000000 ) ) ;
#187 = CARTESIAN_POINT ( 'NONE',  ( 1.745740669421564903E-15, -6.123233995736759873E-17, 0.4999999999999994449 ) ) ;
#188 = ADVANCED_FACE ( 'NONE', ( #16, #182 ), #282, .T. ) ;
#189 = AXIS2_PLACEMENT_3D ( 'NONE', #177, #27, #26 ) ;
#190 = APPROVAL_PERSON_ORGANIZATION ( #2, #274, #4 ) ;
#191 = EDGE_LOOP ( 'NONE', ( #146 ) ) ;
#192 = PERSON_AND_ORGANIZATION_ROLE ( 'creator' ) ;
#193 = CARTESIAN_POINT ( 'NONE',  ( 6.633814543801952113E-14, -2.326828918379970970E-15, 19.00000000000000000 ) ) ;
#194 = CC_DESIGN_DATE_AND_TIME_ASSIGNMENT ( #196, #150, ( #159 ) ) ;
#195 = AXIS2_PLACEMENT_3D ( 'NONE', #279, #61, #203 ) ;
#196 = DATE_AND_TIME ( #56, #250 ) ;
#197 = EDGE_CURVE ( 'NONE', #145, #145, #50, .T. ) ;
#198 = ADVANCED_FACE ( 'NONE', ( #148, #162 ), #226, .F. ) ;
#199 = FACE_OUTER_BOUND ( 'NONE', #152, .T. ) ;
#200 = AXIS2_PLACEMENT_3D ( 'NONE', #256, #100, #225 ) ;
#201 = AXIS2_PLACEMENT_3D ( 'NONE', #85, #233, #109 ) ;
#202 = CARTESIAN_POINT ( 'NONE',  ( 6.633814543801952113E-14, -2.326828918379970970E-15, 19.00000000000000000 ) ) ;
#203 = DIRECTION ( 'NONE',  ( 0.0000000000000000000, 1.000000000000000000, 0.0000000000000000000 ) ) ;
#204 = APPROVAL ( #135, 'UNSPECIFIED' ) ;
#205 = DIRECTION ( 'NONE',  ( 4.275831445896958607E-31, 1.000000000000000000, 1.224646799147353207E-16 ) ) ;
#206 = DIRECTION ( 'NONE',  ( 3.491481338843133355E-15, -1.224646799147353207E-16, 1.000000000000000000 ) ) ;
#207 = CC_DESIGN_PERSON_AND_ORGANIZATION_ASSIGNMENT ( #153, #55, ( #214 ) ) ;
#208 = CARTESIAN_POINT ( 'NONE',  ( 6.633814543801952113E-14, 5.499999999999997335, 19.00000000000000000 ) ) ;
#209 = ADVANCED_FACE ( 'NONE', ( #264 ), #87, .T. ) ;
#210 = DIRECTION ( 'NONE',  ( 0.0000000000000000000, 1.000000000000000000, 0.0000000000000000000 ) ) ;
#211 = CARTESIAN_POINT ( 'NONE',  ( 3.351822085289408021E-13, -1.214306433183764966E-14, 96.00000000000000000 ) ) ;
#212 = APPLICATION_CONTEXT ( 'configuration controlled 3d designs of mechanical parts and assemblies' ) ;
#213 = DIRECTION ( 'NONE',  ( -3.491481338843133355E-15, 1.224646799147353207E-16, -1.000000000000000000 ) ) ;
#214 = PRODUCT ( '200644', '200644', '', ( #155 ) ) ;
#215 = ORIENTED_EDGE ( 'NONE', *, *, #19, .T. ) ;
#216 = COORDINATED_UNIVERSAL_TIME_OFFSET ( 1, 0, .AHEAD. ) ;
#217 = FACE_BOUND ( 'NONE', #236, .T. ) ;
#218 = CC_DESIGN_PERSON_AND_ORGANIZATION_ASSIGNMENT ( #219, #192, ( #78 ) ) ;
#219 = PERSON_AND_ORGANIZATION ( #29, #44 ) ;
#220 = DIRECTION ( 'NONE',  ( 0.0000000000000000000, 1.000000000000000000, 0.0000000000000000000 ) ) ;
#221 = CALENDAR_DATE ( 2021, 2, 12 ) ;
#222 = LOCAL_TIME ( 9, 36, 35.00000000000000000, #176 ) ;
#223 = DIRECTION ( 'NONE',  ( 4.275831445896958607E-31, 1.000000000000000000, 1.224646799147353207E-16 ) ) ;
#224 = CARTESIAN_POINT ( 'NONE',  ( 6.633814543801952113E-14, 4.124339402320104042E-32, 19.00000000000000000 ) ) ;
#225 = DIRECTION ( 'NONE',  ( 4.275831445896958607E-31, 1.000000000000000000, 1.224646799147353207E-16 ) ) ;
#226 = TOROIDAL_SURFACE ( 'NONE', #103, 6.750000000000001776, 1.999999999999997113 ) ;
#227 =( GEOMETRIC_REPRESENTATION_CONTEXT ( 3 ) GLOBAL_UNCERTAINTY_ASSIGNED_CONTEXT ( ( #17 ) ) GLOBAL_UNIT_ASSIGNED_CONTEXT ( ( #126, #230, #147 ) ) REPRESENTATION_CONTEXT ( 'NONE', 'WORKASPACE' ) );
#228 = CC_DESIGN_PERSON_AND_ORGANIZATION_ASSIGNMENT ( #35, #167, ( #78 ) ) ;
#229 = DIRECTION ( 'NONE',  ( 4.275831445896957731E-31, 1.000000000000000000, 1.224646799147353454E-16 ) ) ;
#230 =( NAMED_UNIT ( * ) PLANE_ANGLE_UNIT ( ) SI_UNIT ( $, .RADIAN. ) );
#231 = CLOSED_SHELL ( 'NONE', ( #272, #188, #180, #209 ) ) ;
#232 = CARTESIAN_POINT ( 'NONE',  ( 7.087371274243584073E-14, 4.749999999999987566, 20.29903810567668998 ) ) ;
#233 = DIRECTION ( 'NONE',  ( 0.0000000000000000000, 0.0000000000000000000, 1.000000000000000000 ) ) ;
#234 = EDGE_LOOP ( 'NONE', ( #156 ) ) ;
#235 = VERTEX_POINT ( 'NONE', #258 ) ;
#236 = EDGE_LOOP ( 'NONE', ( #215 ) ) ;
#237 = PRODUCT_RELATED_PRODUCT_CATEGORY ( 'detail', '', ( #214 ) ) ;
#238 = AXIS2_PLACEMENT_3D ( 'NONE', #202, #255, #40 ) ;
#239 = DIRECTION ( 'NONE',  ( 4.275831445896958607E-31, 1.000000000000000000, 1.224646799147353207E-16 ) ) ;
#240 = ORIENTED_EDGE ( 'NONE', *, *, #47, .T. ) ;
#241 = APPROVAL_STATUS ( 'not_yet_approved' ) ;
#242 = DIRECTION ( 'NONE',  ( -3.491481338843133355E-15, 1.224646799147353207E-16, -1.000000000000000000 ) ) ;
#243 = APPROVAL_PERSON_ORGANIZATION ( #111, #278, #137 ) ;
#244 = CALENDAR_DATE ( 2021, 2, 12 ) ;
#245 = ORIENTED_EDGE ( 'NONE', *, *, #269, .F. ) ;
#246 = COORDINATED_UNIVERSAL_TIME_OFFSET ( 1, 0, .AHEAD. ) ;
#247 = DATE_AND_TIME ( #32, #84 ) ;
#248 = DIRECTION ( 'NONE',  ( -3.491481338843133355E-15, 1.224646799147353207E-16, -1.000000000000000000 ) ) ;
#249 = CIRCLE ( 'NONE', #12, 5.000000000000002665 ) ;
#250 = LOCAL_TIME ( 9, 36, 35.00000000000000000, #89 ) ;
#251 = FACE_OUTER_BOUND ( 'NONE', #234, .T. ) ;
#252 = ORIENTED_EDGE ( 'NONE', *, *, #269, .T. ) ;
#253 = DIRECTION ( 'NONE',  ( 3.491481338843133355E-15, -1.224646799147353207E-16, 1.000000000000000000 ) ) ;
#254 = CIRCLE ( 'NONE', #62, 5.999999999999994671 ) ;
#255 = DIRECTION ( 'NONE',  ( -3.491481338843133355E-15, 1.224646799147353207E-16, -1.000000000000000000 ) ) ;
#256 = CARTESIAN_POINT ( 'NONE',  ( 0.0000000000000000000, 0.0000000000000000000, 0.0000000000000000000 ) ) ;
#257 = ORIENTED_EDGE ( 'NONE', *, *, #3, .T. ) ;
#258 = CARTESIAN_POINT ( 'NONE',  ( 3.416555881846535738E-13, 5.999999999999983125, 97.85404962177391042 ) ) ;
#259 = FACE_OUTER_BOUND ( 'NONE', #58, .T. ) ;
#260 = AXIS2_PLACEMENT_3D ( 'NONE', #96, #248, #223 ) ;
#261 = CC_DESIGN_SECURITY_CLASSIFICATION ( #91, ( #78 ) ) ;
#262 = ORIENTED_EDGE ( 'NONE', *, *, #131, .T. ) ;
#263 = CC_DESIGN_DATE_AND_TIME_ASSIGNMENT ( #53, #170, ( #91 ) ) ;
#264 = FACE_OUTER_BOUND ( 'NONE', #271, .T. ) ;
#265 = AXIS2_PLACEMENT_3D ( 'NONE', #59, #140, #76 ) ;
#266 = PERSON_AND_ORGANIZATION_ROLE ( 'classification_officer' ) ;
#267 = ORIENTED_EDGE ( 'NONE', *, *, #31, .T. ) ;
#268 = DATE_AND_TIME ( #132, #283 ) ;
#269 = EDGE_CURVE ( 'NONE', #67, #67, #133, .T. ) ;
#270 = EDGE_LOOP ( 'NONE', ( #130 ) ) ;
#271 = EDGE_LOOP ( 'NONE', ( #125 ) ) ;
#272 = ADVANCED_FACE ( 'NONE', ( #259 ), #64, .F. ) ;
#273 = DATE_AND_TIME ( #221, #222 ) ;
#274 = APPROVAL ( #48, 'UNSPECIFIED' ) ;
#275 = FACE_OUTER_BOUND ( 'NONE', #83, .T. ) ;
#276 = CLOSED_SHELL ( 'NONE', ( #60, #23, #28, #198, #37, #77, #160 ) ) ;
#277 = CARTESIAN_POINT ( 'NONE',  ( 0.0000000000000000000, 0.0000000000000000000, 0.0000000000000000000 ) ) ;
#278 = APPROVAL ( #241, 'UNSPECIFIED' ) ;
#279 = CARTESIAN_POINT ( 'NONE',  ( 4.957903501157248607E-13, -1.738998454789241313E-14, 142.0000000000000000 ) ) ;
#280 = DIRECTION ( 'NONE',  ( -4.202028969572153022E-31, -1.000000000000000000, -1.182766006347823602E-16 ) ) ;
#281 = CARTESIAN_POINT ( 'NONE',  ( 3.028377322213057820E-30, 5.000000000000002665, 8.673617379884035472E-16 ) ) ;
#282 = CONICAL_SURFACE ( 'NONE', #39, 5.499999999999997335, 0.7853981633974433940 ) ;
#283 = LOCAL_TIME ( 9, 36, 35.00000000000000000, #246 ) ;
ENDSEC;
END-ISO-10303-21;
