ISO-10303-21;
HEADER;
FILE_DESCRIPTION (( 'STEP AP203' ),
    '1' );
FILE_NAME ('200643.step',
    '2021-12-02T08:11:02',
    ( '' ),
    ( '' ),
    'SwSTEP 2.0',
    'SolidWorks 2019',
    '' );
FILE_SCHEMA (( 'CONFIG_CONTROL_DESIGN' ));
ENDSEC;

DATA;
#1 = DIRECTION ( 'NONE',  ( 4.275831445896958607E-31, 1.000000000000000000, 1.224646799147353207E-16 ) ) ;
#2 = ADVANCED_FACE ( 'NONE', ( #138, #283 ), #3, .T. ) ;
#3 = CYLINDRICAL_SURFACE ( 'NONE', #60, 5.299999999999998934 ) ;
#4 = CC_DESIGN_APPROVAL ( #230, ( #64 ) ) ;
#5 = FACE_OUTER_BOUND ( 'NONE', #22, .T. ) ;
#6 = DIRECTION ( 'NONE',  ( -3.491481338843133355E-15, 1.224646799147353207E-16, -1.000000000000000000 ) ) ;
#7 = DIRECTION ( 'NONE',  ( 0.0000000000000000000, 1.000000000000000000, 0.0000000000000000000 ) ) ;
#8 = LOCAL_TIME ( 9, 11, 2.000000000000000000, #220 ) ;
#9 = CARTESIAN_POINT ( 'NONE',  ( 4.643670180661366731E-13, -1.628780242865979995E-14, 133.0000000000000000 ) ) ;
#10 = PRODUCT_RELATED_PRODUCT_CATEGORY ( 'detail', '', ( #246 ) ) ;
#11 = PLANE ( 'NONE',  #48 ) ;
#12 = FACE_BOUND ( 'NONE', #65, .T. ) ;
#13 = APPROVAL_PERSON_ORGANIZATION ( #82, #167, #173 ) ;
#14 = APPLICATION_PROTOCOL_DEFINITION ( 'international standard', 'config_control_design', 1994, #93 ) ;
#15 = CARTESIAN_POINT ( 'NONE',  ( 6.966422812792482637E-14, 4.749999999999989342, 19.95262794416290930 ) ) ;
#16 = APPROVAL_ROLE ( '' ) ;
#17 = AXIS2_PLACEMENT_3D ( 'NONE', #139, #142, #114 ) ;
#18 = PERSON_AND_ORGANIZATION_ROLE ( 'design_owner' ) ;
#19 = DATE_AND_TIME ( #216, #273 ) ;
#20 = ORIENTED_EDGE ( 'NONE', *, *, #213, .T. ) ;
#21 = EDGE_LOOP ( 'NONE', ( #282 ) ) ;
#22 = EDGE_LOOP ( 'NONE', ( #133 ) ) ;
#23 = DIRECTION ( 'NONE',  ( 0.0000000000000000000, 1.000000000000000000, 0.0000000000000000000 ) ) ;
#24 = CALENDAR_DATE ( 2021, 2, 12 ) ;
#25 = CARTESIAN_POINT ( 'NONE',  ( 3.071394887490858903E-13, -1.077300306903406976E-14, 87.96824583655184426 ) ) ;
#26 = DIRECTION ( 'NONE',  ( -3.491481338843133355E-15, 1.224646799147353207E-16, -1.000000000000000000 ) ) ;
#27 = ORIENTED_EDGE ( 'NONE', *, *, #91, .T. ) ;
#28 = DIRECTION ( 'NONE',  ( -3.491481338843133355E-15, 1.224646799147353207E-16, -1.000000000000000000 ) ) ;
#29 = DIRECTION ( 'NONE',  ( 0.0000000000000000000, 1.000000000000000000, 0.0000000000000000000 ) ) ;
#30 = AXIS2_PLACEMENT_3D ( 'NONE', #222, #26, #202 ) ;
#31 = FACE_OUTER_BOUND ( 'NONE', #146, .T. ) ;
#32 = VERTEX_POINT ( 'NONE', #50 ) ;
#33 = DIRECTION ( 'NONE',  ( -3.491481338843133355E-15, 1.224646799147353207E-16, -1.000000000000000000 ) ) ;
#34 = DATE_AND_TIME ( #77, #125 ) ;
#35 = APPROVAL_STATUS ( 'not_yet_approved' ) ;
#36 = PRODUCT_DEFINITION ( 'UNKNOWN', '', #64, #69 ) ;
#37 = APPROVAL_STATUS ( 'not_yet_approved' ) ;
#38 = CIRCLE ( 'NONE', #75, 5.299999999999999822 ) ;
#39 = PERSON_AND_ORGANIZATION ( #112, #97 ) ;
#40 = EDGE_CURVE ( 'NONE', #116, #116, #267, .T. ) ;
#41 = PERSON_AND_ORGANIZATION ( #112, #97 ) ;
#42 = EDGE_LOOP ( 'NONE', ( #20 ) ) ;
#43 = APPROVAL_DATE_TIME ( #134, #167 ) ;
#44 = EDGE_LOOP ( 'NONE', ( #214 ) ) ;
#45 = FACE_OUTER_BOUND ( 'NONE', #21, .T. ) ;
#46 = ADVANCED_FACE ( 'NONE', ( #45, #203 ), #143, .T. ) ;
#47 = DIRECTION ( 'NONE',  ( -4.275831445896958607E-31, -1.000000000000000000, -1.224646799147353207E-16 ) ) ;
#48 = AXIS2_PLACEMENT_3D ( 'NONE', #209, #33, #140 ) ;
#49 = DIRECTION ( 'NONE',  ( 3.491481338843133355E-15, -1.224646799147353207E-16, 1.000000000000000000 ) ) ;
#50 = CARTESIAN_POINT ( 'NONE',  ( 4.608755367272936534E-13, 4.999999999999991118, 132.0000000000000000 ) ) ;
#51 = FACE_OUTER_BOUND ( 'NONE', #42, .T. ) ;
#52 = DIRECTION ( 'NONE',  ( -3.491481338843133355E-15, 1.224646799147353207E-16, -1.000000000000000000 ) ) ;
#53 = AXIS2_PLACEMENT_3D ( 'NONE', #72, #248, #268 ) ;
#54 = MANIFOLD_SOLID_BREP ( 'Corps-Déplacer/Copier1[1]', #115 ) ;
#55 = DIRECTION ( 'NONE',  ( -3.491481338843133355E-15, 1.224646799147353207E-16, -1.000000000000000000 ) ) ;
#56 = MANIFOLD_SOLID_BREP ( 'Corps-Déplacer/Copier1[2]', #170 ) ;
#57 = PLANE ( 'NONE',  #17 ) ;
#58 =( NAMED_UNIT ( * ) SI_UNIT ( $, .STERADIAN. ) SOLID_ANGLE_UNIT ( ) );
#59 = EDGE_LOOP ( 'NONE', ( #90 ) ) ;
#60 = AXIS2_PLACEMENT_3D ( 'NONE', #221, #183, #1 ) ;
#61 = AXIS2_PLACEMENT_3D ( 'NONE', #243, #6, #23 ) ;
#62 = COORDINATED_UNIVERSAL_TIME_OFFSET ( 1, 0, .AHEAD. ) ;
#63 = AXIS2_PLACEMENT_3D ( 'NONE', #226, #208, #160 ) ;
#64 = PRODUCT_DEFINITION_FORMATION_WITH_SPECIFIED_SOURCE ( 'ANY', '', #246, .NOT_KNOWN. ) ;
#65 = EDGE_LOOP ( 'NONE', ( #196 ) ) ;
#66 = FACE_OUTER_BOUND ( 'NONE', #81, .T. ) ;
#67 = CARTESIAN_POINT ( 'NONE',  ( 6.633814543801952113E-14, -2.326828918379970970E-15, 19.00000000000000000 ) ) ;
#68 = CARTESIAN_POINT ( 'NONE',  ( 0.0000000000000000000, 0.0000000000000000000, 0.0000000000000000000 ) ) ;
#69 = DESIGN_CONTEXT ( 'detailed design', #122, 'design' ) ;
#70 = PLANE ( 'NONE',  #223 ) ;
#71 = DIRECTION ( 'NONE',  ( 0.0000000000000000000, 1.000000000000000000, 0.0000000000000000000 ) ) ;
#72 = CARTESIAN_POINT ( 'NONE',  ( 1.396592535537251370E-15, -4.898587196589405680E-17, 0.3999999999999994116 ) ) ;
#73 = CARTESIAN_POINT ( 'NONE',  ( 3.028377322213058170E-30, 4.900000000000001243, 8.673617379884035472E-16 ) ) ;
#74 = DIRECTION ( 'NONE',  ( 4.275831445896958607E-31, 1.000000000000000000, 1.224646799147353454E-16 ) ) ;
#75 = AXIS2_PLACEMENT_3D ( 'NONE', #227, #92, #7 ) ;
#76 = CARTESIAN_POINT ( 'NONE',  ( 6.633814543801952113E-14, 5.299999999999997158, 19.00000000000000000 ) ) ;
#77 = CALENDAR_DATE ( 2021, 2, 12 ) ;
#78 = ADVANCED_FACE ( 'NONE', ( #241 ), #107, .F. ) ;
#79 = DIRECTION ( 'NONE',  ( 1.000000000000000000, 0.0000000000000000000, 0.0000000000000000000 ) ) ;
#80 = AXIS2_PLACEMENT_3D ( 'NONE', #68, #152, #154 ) ;
#81 = EDGE_LOOP ( 'NONE', ( #105 ) ) ;
#82 = PERSON_AND_ORGANIZATION ( #112, #97 ) ;
#83 = EDGE_LOOP ( 'NONE', ( #259 ) ) ;
#84 = DIRECTION ( 'NONE',  ( -3.491481338843133355E-15, 1.224646799147353207E-16, -1.000000000000000000 ) ) ;
#85 = CC_DESIGN_PERSON_AND_ORGANIZATION_ASSIGNMENT ( #41, #18, ( #246 ) ) ;
#86 = ORIENTED_EDGE ( 'NONE', *, *, #213, .F. ) ;
#87 = TOROIDAL_SURFACE ( 'NONE', #272, 6.750000000000007994, 2.000000000000001776 ) ;
#88 = UNCERTAINTY_MEASURE_WITH_UNIT (LENGTH_MEASURE( 1.000000000000000082E-05 ), #171, 'distance_accuracy_value', 'NONE');
#89 = CARTESIAN_POINT ( 'NONE',  ( 3.037588764793525640E-13, -1.065442715258197209E-14, 87.00000000000000000 ) ) ;
#90 = ORIENTED_EDGE ( 'NONE', *, *, #126, .F. ) ;
#91 = EDGE_CURVE ( 'NONE', #32, #32, #137, .T. ) ;
#92 = DIRECTION ( 'NONE',  ( -3.491481338843133355E-15, 1.224646799147353207E-16, -1.000000000000000000 ) ) ;
#93 = APPLICATION_CONTEXT ( 'configuration controlled 3d designs of mechanical parts and assemblies' ) ;
#94 = VERTEX_POINT ( 'NONE', #168 ) ;
#95 = CARTESIAN_POINT ( 'NONE',  ( 3.037588764793525640E-13, 4.749999999999997335, 87.00000000000000000 ) ) ;
#96 = CARTESIAN_POINT ( 'NONE',  ( 4.643670180661366731E-13, -1.628780242865979995E-14, 133.0000000000000000 ) ) ;
#97 = ORGANIZATION ( 'UNSPECIFIED', 'UNSPECIFIED', '' ) ;
#98 = FACE_OUTER_BOUND ( 'NONE', #101, .T. ) ;
#99 = CONICAL_SURFACE ( 'NONE', #109, 4.000000000000007994, 0.7853981633974479459 ) ;
#100 = MECHANICAL_CONTEXT ( 'NONE', #93, 'mechanical' ) ;
#101 = EDGE_LOOP ( 'NONE', ( #197 ) ) ;
#102 = CIRCLE ( 'NONE', #217, 5.299999999999999822 ) ;
#103 = APPROVAL_ROLE ( '' ) ;
#104 = DATE_TIME_ROLE ( 'classification_date' ) ;
#105 = ORIENTED_EDGE ( 'NONE', *, *, #126, .T. ) ;
#106 = EDGE_LOOP ( 'NONE', ( #151 ) ) ;
#107 = PLANE ( 'NONE',  #237 ) ;
#108 = CARTESIAN_POINT ( 'NONE',  ( 6.633814543801952113E-14, 3.974363424053918829E-32, 19.00000000000000000 ) ) ;
#109 = AXIS2_PLACEMENT_3D ( 'NONE', #96, #188, #211 ) ;
#110 = LOCAL_TIME ( 9, 11, 2.000000000000000000, #62 ) ;
#111 = DIRECTION ( 'NONE',  ( 0.0000000000000000000, 1.000000000000000000, 0.0000000000000000000 ) ) ;
#112 = PERSON ( 'UNSPECIFIED', 'UNSPECIFIED', 'UNSPECIFIED', ('UNSPECIFIED'), ('UNSPECIFIED'), ('UNSPECIFIED') ) ;
#113 = EDGE_LOOP ( 'NONE', ( #178 ) ) ;
#114 = DIRECTION ( 'NONE',  ( -4.275831445896958607E-31, -1.000000000000000000, -1.224646799147353207E-16 ) ) ;
#115 = CLOSED_SHELL ( 'NONE', ( #78, #46, #131, #239, #264, #215, #176 ) ) ;
#116 = VERTEX_POINT ( 'NONE', #228 ) ;
#117 = FACE_OUTER_BOUND ( 'NONE', #44, .T. ) ;
#118 = FACE_OUTER_BOUND ( 'NONE', #174, .T. ) ;
#119 = AXIS2_PLACEMENT_3D ( 'NONE', #186, #253, #74 ) ;
#120 = PERSON_AND_ORGANIZATION_ROLE ( 'classification_officer' ) ;
#121 = CC_DESIGN_PERSON_AND_ORGANIZATION_ASSIGNMENT ( #256, #147, ( #64 ) ) ;
#122 = APPLICATION_CONTEXT ( 'configuration controlled 3d designs of mechanical parts and assemblies' ) ;
#123 =( NAMED_UNIT ( * ) PLANE_ANGLE_UNIT ( ) SI_UNIT ( $, .RADIAN. ) );
#124 = CARTESIAN_POINT ( 'NONE',  ( 0.0000000000000000000, 0.0000000000000000000, 0.0000000000000000000 ) ) ;
#125 = LOCAL_TIME ( 9, 11, 2.000000000000000000, #279 ) ;
#126 = EDGE_CURVE ( 'NONE', #158, #158, #175, .T. ) ;
#127 = PERSON_AND_ORGANIZATION_ROLE ( 'design_supplier' ) ;
#128 = CC_DESIGN_PERSON_AND_ORGANIZATION_ASSIGNMENT ( #236, #127, ( #64 ) ) ;
#129 = VERTEX_POINT ( 'NONE', #15 ) ;
#130 = ORIENTED_EDGE ( 'NONE', *, *, #40, .F. ) ;
#131 = ADVANCED_FACE ( 'NONE', ( #262, #66 ), #177, .T. ) ;
#132 = AXIS2_PLACEMENT_3D ( 'NONE', #124, #145, #79 ) ;
#133 = ORIENTED_EDGE ( 'NONE', *, *, #193, .F. ) ;
#134 = DATE_AND_TIME ( #24, #8 ) ;
#135 = DIRECTION ( 'NONE',  ( 0.0000000000000000000, 1.000000000000000000, 0.0000000000000000000 ) ) ;
#136 = DIRECTION ( 'NONE',  ( 0.0000000000000000000, 1.000000000000000000, 0.0000000000000000000 ) ) ;
#137 = CIRCLE ( 'NONE', #163, 5.000000000000007994 ) ;
#138 = FACE_OUTER_BOUND ( 'NONE', #182, .T. ) ;
#139 = CARTESIAN_POINT ( 'NONE',  ( 4.666099568617739726E-31, -1.636647413130365857E-32, 1.336424032031001627E-16 ) ) ;
#140 = DIRECTION ( 'NONE',  ( 4.275831445896958607E-31, 1.000000000000000000, 1.224646799147353207E-16 ) ) ;
#141 = CARTESIAN_POINT ( 'NONE',  ( 3.037588764793525640E-13, -1.040834085586084257E-14, 87.00000000000000000 ) ) ;
#142 = DIRECTION ( 'NONE',  ( 3.491481338843133355E-15, -1.224646799147353207E-16, 1.000000000000000000 ) ) ;
#143 = CONICAL_SURFACE ( 'NONE', #61, 4.749999999999992006, 0.5235987755982932645 ) ;
#144 = PERSON_AND_ORGANIZATION ( #112, #97 ) ;
#145 = DIRECTION ( 'NONE',  ( 0.0000000000000000000, 0.0000000000000000000, 1.000000000000000000 ) ) ;
#146 = EDGE_LOOP ( 'NONE', ( #238 ) ) ;
#147 = PERSON_AND_ORGANIZATION_ROLE ( 'creator' ) ;
#148 = AXIS2_PLACEMENT_3D ( 'NONE', #9, #52, #29 ) ;
#149 = EDGE_LOOP ( 'NONE', ( #258 ) ) ;
#150 = EDGE_CURVE ( 'NONE', #187, #187, #102, .T. ) ;
#151 = ORIENTED_EDGE ( 'NONE', *, *, #274, .T. ) ;
#152 = DIRECTION ( 'NONE',  ( -3.491481338843133355E-15, 1.224646799147353207E-16, -1.000000000000000000 ) ) ;
#153 = CIRCLE ( 'NONE', #30, 4.900000000000001243 ) ;
#154 = DIRECTION ( 'NONE',  ( 4.275831445896959482E-31, 1.000000000000000000, 1.224646799147353207E-16 ) ) ;
#155 = DIRECTION ( 'NONE',  ( -3.491481338843133355E-15, 1.224646799147353207E-16, -1.000000000000000000 ) ) ;
#156 = CARTESIAN_POINT ( 'NONE',  ( 6.633814543801952113E-14, 3.974363424053918829E-32, 19.00000000000000000 ) ) ;
#157 = AXIS2_PLACEMENT_3D ( 'NONE', #164, #55, #71 ) ;
#158 = VERTEX_POINT ( 'NONE', #95 ) ;
#159 = EDGE_CURVE ( 'NONE', #190, #190, #153, .T. ) ;
#160 = DIRECTION ( 'NONE',  ( -4.360596100499404658E-31, -1.000000000000000000, -1.227398685832647297E-16 ) ) ;
#161 = VERTEX_POINT ( 'NONE', #76 ) ;
#162 = CC_DESIGN_DATE_AND_TIME_ASSIGNMENT ( #19, #104, ( #181 ) ) ;
#163 = AXIS2_PLACEMENT_3D ( 'NONE', #200, #84, #135 ) ;
#164 = CARTESIAN_POINT ( 'NONE',  ( 6.966422812792482637E-14, -2.443492194639714002E-15, 19.95262794416290930 ) ) ;
#165 = ADVANCED_FACE ( 'NONE', ( #5 ), #70, .T. ) ;
#166 = FACE_OUTER_BOUND ( 'NONE', #59, .T. ) ;
#167 = APPROVAL ( #212, 'UNSPECIFIED' ) ;
#168 = CARTESIAN_POINT ( 'NONE',  ( 4.643670180661366731E-13, 3.999999999999991562, 133.0000000000000000 ) ) ;
#169 = COORDINATED_UNIVERSAL_TIME_OFFSET ( 1, 0, .AHEAD. ) ;
#170 = CLOSED_SHELL ( 'NONE', ( #199, #185, #2, #165 ) ) ;
#171 =( LENGTH_UNIT ( ) NAMED_UNIT ( * ) SI_UNIT ( .MILLI., .METRE. ) );
#172 = DATE_TIME_ROLE ( 'creation_date' ) ;
#173 = APPROVAL_ROLE ( '' ) ;
#174 = EDGE_LOOP ( 'NONE', ( #198 ) ) ;
#175 = CIRCLE ( 'NONE', #206, 4.750000000000007994 ) ;
#176 = ADVANCED_FACE ( 'NONE', ( #117 ), #11, .F. ) ;
#177 = CYLINDRICAL_SURFACE ( 'NONE', #80, 4.750000000000000000 ) ;
#178 = ORIENTED_EDGE ( 'NONE', *, *, #193, .T. ) ;
#179 = DIRECTION ( 'NONE',  ( -3.491481338843133355E-15, 1.224646799147353207E-16, -1.000000000000000000 ) ) ;
#180 = CIRCLE ( 'NONE', #53, 5.299999999999997158 ) ;
#181 = SECURITY_CLASSIFICATION ( '', '', #257 ) ;
#182 = EDGE_LOOP ( 'NONE', ( #86 ) ) ;
#183 = DIRECTION ( 'NONE',  ( -3.491481338843133355E-15, 1.224646799147353207E-16, -1.000000000000000000 ) ) ;
#184 = CC_DESIGN_DATE_AND_TIME_ASSIGNMENT ( #34, #172, ( #36 ) ) ;
#185 = ADVANCED_FACE ( 'NONE', ( #12, #51 ), #261, .T. ) ;
#186 = CARTESIAN_POINT ( 'NONE',  ( 0.0000000000000000000, 0.0000000000000000000, 0.0000000000000000000 ) ) ;
#187 = VERTEX_POINT ( 'NONE', #269 ) ;
#188 = DIRECTION ( 'NONE',  ( -3.491481338843133355E-15, 1.224646799147353207E-16, -1.000000000000000000 ) ) ;
#189 =( GEOMETRIC_REPRESENTATION_CONTEXT ( 3 ) GLOBAL_UNCERTAINTY_ASSIGNED_CONTEXT ( ( #88 ) ) GLOBAL_UNIT_ASSIGNED_CONTEXT ( ( #171, #123, #58 ) ) REPRESENTATION_CONTEXT ( 'NONE', 'WORKASPACE' ) );
#190 = VERTEX_POINT ( 'NONE', #73 ) ;
#191 = CALENDAR_DATE ( 2021, 2, 12 ) ;
#192 = PERSON_AND_ORGANIZATION ( #112, #97 ) ;
#193 = EDGE_CURVE ( 'NONE', #161, #161, #38, .T. ) ;
#194 = LOCAL_TIME ( 9, 11, 2.000000000000000000, #169 ) ;
#195 = PERSON_AND_ORGANIZATION ( #112, #97 ) ;
#196 = ORIENTED_EDGE ( 'NONE', *, *, #159, .F. ) ;
#197 = ORIENTED_EDGE ( 'NONE', *, *, #91, .F. ) ;
#198 = ORIENTED_EDGE ( 'NONE', *, *, #40, .T. ) ;
#199 = ADVANCED_FACE ( 'NONE', ( #31 ), #57, .F. ) ;
#200 = CARTESIAN_POINT ( 'NONE',  ( 4.608755367272936534E-13, -1.616533774874506480E-14, 132.0000000000000000 ) ) ;
#201 = APPROVAL_PERSON_ORGANIZATION ( #39, #230, #16 ) ;
#202 = DIRECTION ( 'NONE',  ( 4.275831445896958607E-31, 1.000000000000000000, 1.224646799147353207E-16 ) ) ;
#203 = FACE_BOUND ( 'NONE', #106, .T. ) ;
#204 = PRODUCT_DEFINITION_SHAPE ( 'NONE', 'NONE',  #36 ) ;
#205 = FACE_OUTER_BOUND ( 'NONE', #235, .T. ) ;
#206 = AXIS2_PLACEMENT_3D ( 'NONE', #89, #179, #263 ) ;
#207 = DIRECTION ( 'NONE',  ( -4.275831445896958607E-31, -1.000000000000000000, -1.224646799147353207E-16 ) ) ;
#208 = DIRECTION ( 'NONE',  ( 3.491481338843133355E-15, -1.224646799147353207E-16, 1.000000000000000000 ) ) ;
#209 = CARTESIAN_POINT ( 'NONE',  ( 4.643670180661366731E-13, 2.999519565323696057E-32, 133.0000000000000000 ) ) ;
#210 = CIRCLE ( 'NONE', #148, 4.000000000000007994 ) ;
#211 = DIRECTION ( 'NONE',  ( 0.0000000000000000000, 1.000000000000000000, 0.0000000000000000000 ) ) ;
#212 = APPROVAL_STATUS ( 'not_yet_approved' ) ;
#213 = EDGE_CURVE ( 'NONE', #247, #247, #180, .T. ) ;
#214 = ORIENTED_EDGE ( 'NONE', *, *, #250, .F. ) ;
#215 = ADVANCED_FACE ( 'NONE', ( #98, #266 ), #99, .T. ) ;
#216 = CALENDAR_DATE ( 2021, 2, 12 ) ;
#217 = AXIS2_PLACEMENT_3D ( 'NONE', #67, #155, #136 ) ;
#218 = EDGE_LOOP ( 'NONE', ( #130 ) ) ;
#219 = APPROVAL ( #37, 'UNSPECIFIED' ) ;
#220 = COORDINATED_UNIVERSAL_TIME_OFFSET ( 1, 0, .AHEAD. ) ;
#221 = CARTESIAN_POINT ( 'NONE',  ( 0.0000000000000000000, 0.0000000000000000000, 0.0000000000000000000 ) ) ;
#222 = CARTESIAN_POINT ( 'NONE',  ( 9.332199137235479451E-31, -3.273294826260731715E-32, 2.672848064062003253E-16 ) ) ;
#223 = AXIS2_PLACEMENT_3D ( 'NONE', #156, #49, #207 ) ;
#224 = EDGE_LOOP ( 'NONE', ( #244 ) ) ;
#225 = CARTESIAN_POINT ( 'NONE',  ( 1.396592535537253737E-15, 5.299999999999997158, 0.4000000000000000777 ) ) ;
#226 = CARTESIAN_POINT ( 'NONE',  ( 1.396592535537251370E-15, -4.898587196589405680E-17, 0.3999999999999994116 ) ) ;
#227 = CARTESIAN_POINT ( 'NONE',  ( 6.633814543801952113E-14, -2.326828918379970970E-15, 19.00000000000000000 ) ) ;
#228 = CARTESIAN_POINT ( 'NONE',  ( 3.071394887490858903E-13, 4.999999999999990230, 87.96824583655184426 ) ) ;
#229 = ADVANCED_BREP_SHAPE_REPRESENTATION ( '200643', ( #54, #56, #132 ), #189 ) ;
#230 = APPROVAL ( #35, 'UNSPECIFIED' ) ;
#231 = DIRECTION ( 'NONE',  ( 4.275831445896958607E-31, 1.000000000000000000, 1.224646799147353207E-16 ) ) ;
#232 = APPROVAL_DATE_TIME ( #278, #230 ) ;
#233 = DATE_AND_TIME ( #191, #110 ) ;
#234 = CC_DESIGN_PERSON_AND_ORGANIZATION_ASSIGNMENT ( #144, #120, ( #181 ) ) ;
#235 = EDGE_LOOP ( 'NONE', ( #27 ) ) ;
#236 = PERSON_AND_ORGANIZATION ( #112, #97 ) ;
#237 = AXIS2_PLACEMENT_3D ( 'NONE', #108, #260, #47 ) ;
#238 = ORIENTED_EDGE ( 'NONE', *, *, #159, .T. ) ;
#239 = ADVANCED_FACE ( 'NONE', ( #166, #118 ), #87, .F. ) ;
#240 = CC_DESIGN_APPROVAL ( #219, ( #36 ) ) ;
#241 = FACE_OUTER_BOUND ( 'NONE', #149, .T. ) ;
#242 = SHAPE_DEFINITION_REPRESENTATION ( #204, #229 ) ;
#243 = CARTESIAN_POINT ( 'NONE',  ( 6.966422812792482637E-14, -2.443492194639714002E-15, 19.95262794416290930 ) ) ;
#244 = ORIENTED_EDGE ( 'NONE', *, *, #250, .T. ) ;
#245 = CIRCLE ( 'NONE', #157, 4.749999999999992006 ) ;
#246 = PRODUCT ( '200643', '200643', '', ( #100 ) ) ;
#247 = VERTEX_POINT ( 'NONE', #225 ) ;
#248 = DIRECTION ( 'NONE',  ( -3.491481338843133355E-15, 1.224646799147353207E-16, -1.000000000000000000 ) ) ;
#249 = FACE_OUTER_BOUND ( 'NONE', #218, .T. ) ;
#250 = EDGE_CURVE ( 'NONE', #94, #94, #210, .T. ) ;
#251 = AXIS2_PLACEMENT_3D ( 'NONE', #25, #265, #111 ) ;
#252 = APPROVAL_PERSON_ORGANIZATION ( #192, #219, #103 ) ;
#253 = DIRECTION ( 'NONE',  ( -3.491481338843133355E-15, 1.224646799147353207E-16, -1.000000000000000000 ) ) ;
#254 = CALENDAR_DATE ( 2021, 2, 12 ) ;
#255 = APPLICATION_PROTOCOL_DEFINITION ( 'international standard', 'config_control_design', 1994, #122 ) ;
#256 = PERSON_AND_ORGANIZATION ( #112, #97 ) ;
#257 = SECURITY_CLASSIFICATION_LEVEL ( 'unclassified' ) ;
#258 = ORIENTED_EDGE ( 'NONE', *, *, #150, .T. ) ;
#259 = ORIENTED_EDGE ( 'NONE', *, *, #274, .F. ) ;
#260 = DIRECTION ( 'NONE',  ( 3.491481338843133355E-15, -1.224646799147353207E-16, 1.000000000000000000 ) ) ;
#261 = CONICAL_SURFACE ( 'NONE', #63, 5.299999999999997158, 0.7853981633974441712 ) ;
#262 = FACE_OUTER_BOUND ( 'NONE', #83, .T. ) ;
#263 = DIRECTION ( 'NONE',  ( 0.0000000000000000000, 1.000000000000000000, 0.0000000000000000000 ) ) ;
#264 = ADVANCED_FACE ( 'NONE', ( #249, #205 ), #270, .T. ) ;
#265 = DIRECTION ( 'NONE',  ( -3.491481338843133355E-15, 1.224646799147353207E-16, -1.000000000000000000 ) ) ;
#266 = FACE_BOUND ( 'NONE', #224, .T. ) ;
#267 = CIRCLE ( 'NONE', #251, 5.000000000000000888 ) ;
#268 = DIRECTION ( 'NONE',  ( 4.360596100499404658E-31, 1.000000000000000000, 1.227398685832647297E-16 ) ) ;
#269 = CARTESIAN_POINT ( 'NONE',  ( 6.633814543801952113E-14, 5.299999999999997158, 19.00000000000000000 ) ) ;
#270 = CYLINDRICAL_SURFACE ( 'NONE', #119, 5.000000000000004441 ) ;
#271 = CC_DESIGN_APPROVAL ( #167, ( #181 ) ) ;
#272 = AXIS2_PLACEMENT_3D ( 'NONE', #141, #28, #231 ) ;
#273 = LOCAL_TIME ( 9, 11, 2.000000000000000000, #276 ) ;
#274 = EDGE_CURVE ( 'NONE', #129, #129, #245, .T. ) ;
#275 = PERSON_AND_ORGANIZATION_ROLE ( 'creator' ) ;
#276 = COORDINATED_UNIVERSAL_TIME_OFFSET ( 1, 0, .AHEAD. ) ;
#277 = CC_DESIGN_SECURITY_CLASSIFICATION ( #181, ( #64 ) ) ;
#278 = DATE_AND_TIME ( #254, #194 ) ;
#279 = COORDINATED_UNIVERSAL_TIME_OFFSET ( 1, 0, .AHEAD. ) ;
#280 = CC_DESIGN_PERSON_AND_ORGANIZATION_ASSIGNMENT ( #195, #275, ( #36 ) ) ;
#281 = APPROVAL_DATE_TIME ( #233, #219 ) ;
#282 = ORIENTED_EDGE ( 'NONE', *, *, #150, .F. ) ;
#283 = FACE_OUTER_BOUND ( 'NONE', #113, .T. ) ;
ENDSEC;
END-ISO-10303-21;
