ISO-10303-21;
HEADER;
FILE_DESCRIPTION (( 'STEP AP203' ),
    '1' );
FILE_NAME ('200642.step',
    '2021-12-02T08:11:01',
    ( '' ),
    ( '' ),
    'SwSTEP 2.0',
    'SolidWorks 2019',
    '' );
FILE_SCHEMA (( 'CONFIG_CONTROL_DESIGN' ));
ENDSEC;

DATA;
#1 = CARTESIAN_POINT ( 'NONE',  ( 4.643670180661366731E-13, 2.999519565323696057E-32, 133.0000000000000000 ) ) ;
#2 = DIRECTION ( 'NONE',  ( -3.491481338843133355E-15, 1.224646799147353207E-16, -1.000000000000000000 ) ) ;
#3 = DIRECTION ( 'NONE',  ( -3.491481338843133355E-15, 1.224646799147353207E-16, -1.000000000000000000 ) ) ;
#4 = CC_DESIGN_PERSON_AND_ORGANIZATION_ASSIGNMENT ( #55, #256, ( #34 ) ) ;
#5 = EDGE_LOOP ( 'NONE', ( #199 ) ) ;
#6 = EDGE_LOOP ( 'NONE', ( #239 ) ) ;
#7 = DIRECTION ( 'NONE',  ( 0.0000000000000000000, 1.000000000000000000, 0.0000000000000000000 ) ) ;
#8 = ADVANCED_FACE ( 'NONE', ( #104 ), #39, .F. ) ;
#9 = CARTESIAN_POINT ( 'NONE',  ( 4.608755367272936534E-13, -1.616533774874506480E-14, 132.0000000000000000 ) ) ;
#10 = EDGE_LOOP ( 'NONE', ( #31 ) ) ;
#11 = VERTEX_POINT ( 'NONE', #98 ) ;
#12 = ADVANCED_FACE ( 'NONE', ( #66 ), #43, .T. ) ;
#13 =( NAMED_UNIT ( * ) SI_UNIT ( $, .STERADIAN. ) SOLID_ANGLE_UNIT ( ) );
#14 = AXIS2_PLACEMENT_3D ( 'NONE', #264, #25, #109 ) ;
#15 = LOCAL_TIME ( 9, 11, 1.000000000000000000, #148 ) ;
#16 = APPROVAL_STATUS ( 'not_yet_approved' ) ;
#17 = CARTESIAN_POINT ( 'NONE',  ( 6.633814543801952113E-14, 3.936869429487373210E-32, 19.00000000000000000 ) ) ;
#18 = DATE_AND_TIME ( #101, #93 ) ;
#19 = FACE_OUTER_BOUND ( 'NONE', #6, .T. ) ;
#20 = ADVANCED_FACE ( 'NONE', ( #147, #243 ), #108, .T. ) ;
#21 = APPROVAL_STATUS ( 'not_yet_approved' ) ;
#22 = ORIENTED_EDGE ( 'NONE', *, *, #236, .T. ) ;
#23 = AXIS2_PLACEMENT_3D ( 'NONE', #202, #75, #231 ) ;
#24 = CONICAL_SURFACE ( 'NONE', #276, 4.000000000000007994, 0.7853981633974479459 ) ;
#25 = DIRECTION ( 'NONE',  ( -3.491481338843133355E-15, 1.224646799147353207E-16, -1.000000000000000000 ) ) ;
#26 = DIRECTION ( 'NONE',  ( -3.491481338843133355E-15, 1.224646799147353207E-16, -1.000000000000000000 ) ) ;
#27 = FACE_OUTER_BOUND ( 'NONE', #156, .T. ) ;
#28 = CC_DESIGN_SECURITY_CLASSIFICATION ( #212, ( #132 ) ) ;
#29 =( LENGTH_UNIT ( ) NAMED_UNIT ( * ) SI_UNIT ( .MILLI., .METRE. ) );
#30 = DIRECTION ( 'NONE',  ( 0.0000000000000000000, 1.000000000000000000, 0.0000000000000000000 ) ) ;
#31 = ORIENTED_EDGE ( 'NONE', *, *, #236, .F. ) ;
#32 = VERTEX_POINT ( 'NONE', #158 ) ;
#33 = AXIS2_PLACEMENT_3D ( 'NONE', #189, #279, #168 ) ;
#34 = PRODUCT ( '200642', '200642', '', ( #146 ) ) ;
#35 = APPLICATION_PROTOCOL_DEFINITION ( 'international standard', 'config_control_design', 1994, #214 ) ;
#36 = DIRECTION ( 'NONE',  ( 1.000000000000000000, 0.0000000000000000000, 0.0000000000000000000 ) ) ;
#37 = AXIS2_PLACEMENT_3D ( 'NONE', #88, #81, #283 ) ;
#38 = LOCAL_TIME ( 9, 11, 1.000000000000000000, #54 ) ;
#39 = PLANE ( 'NONE',  #275 ) ;
#40 = FACE_OUTER_BOUND ( 'NONE', #96, .T. ) ;
#41 = DIRECTION ( 'NONE',  ( 0.0000000000000000000, 1.000000000000000000, 0.0000000000000000000 ) ) ;
#42 = AXIS2_PLACEMENT_3D ( 'NONE', #160, #254, #181 ) ;
#43 = PLANE ( 'NONE',  #180 ) ;
#44 = VERTEX_POINT ( 'NONE', #76 ) ;
#45 = VERTEX_POINT ( 'NONE', #137 ) ;
#46 = ORIENTED_EDGE ( 'NONE', *, *, #91, .F. ) ;
#47 = EDGE_CURVE ( 'NONE', #97, #97, #145, .T. ) ;
#48 = CIRCLE ( 'NONE', #234, 5.000000000000007994 ) ;
#49 = CYLINDRICAL_SURFACE ( 'NONE', #116, 5.249999999999999112 ) ;
#50 = FACE_OUTER_BOUND ( 'NONE', #139, .T. ) ;
#51 = EDGE_CURVE ( 'NONE', #32, #32, #169, .T. ) ;
#52 = CALENDAR_DATE ( 2021, 2, 12 ) ;
#53 = LOCAL_TIME ( 9, 11, 1.000000000000000000, #85 ) ;
#54 = COORDINATED_UNIVERSAL_TIME_OFFSET ( 1, 0, .AHEAD. ) ;
#55 = PERSON_AND_ORGANIZATION ( #142, #65 ) ;
#56 = ADVANCED_BREP_SHAPE_REPRESENTATION ( '200642', ( #244, #246, #57 ), #79 ) ;
#57 = AXIS2_PLACEMENT_3D ( 'NONE', #258, #187, #36 ) ;
#58 = CARTESIAN_POINT ( 'NONE',  ( 1.396592535537251173E-15, -4.898587196589405063E-17, 0.3999999999999993561 ) ) ;
#59 = APPROVAL_DATE_TIME ( #18, #257 ) ;
#60 = DIRECTION ( 'NONE',  ( 3.491481338843133355E-15, -1.224646799147353207E-16, 1.000000000000000000 ) ) ;
#61 = ORIENTED_EDGE ( 'NONE', *, *, #248, .T. ) ;
#62 = PRODUCT_RELATED_PRODUCT_CATEGORY ( 'detail', '', ( #34 ) ) ;
#63 = EDGE_LOOP ( 'NONE', ( #159 ) ) ;
#64 = CONICAL_SURFACE ( 'NONE', #226, 5.249999999999997335, 0.7853981633974437271 ) ;
#65 = ORGANIZATION ( 'UNSPECIFIED', 'UNSPECIFIED', '' ) ;
#66 = FACE_OUTER_BOUND ( 'NONE', #200, .T. ) ;
#67 = CARTESIAN_POINT ( 'NONE',  ( 6.633814543801952113E-14, 5.249999999999997335, 19.00000000000000000 ) ) ;
#68 = CLOSED_SHELL ( 'NONE', ( #149, #157, #230, #12 ) ) ;
#69 = EDGE_LOOP ( 'NONE', ( #205 ) ) ;
#70 = CC_DESIGN_PERSON_AND_ORGANIZATION_ASSIGNMENT ( #127, #80, ( #132 ) ) ;
#71 = VERTEX_POINT ( 'NONE', #267 ) ;
#72 = APPROVAL_PERSON_ORGANIZATION ( #170, #257, #210 ) ;
#73 = VERTEX_POINT ( 'NONE', #249 ) ;
#74 = EDGE_LOOP ( 'NONE', ( #92 ) ) ;
#75 = DIRECTION ( 'NONE',  ( -3.491481338843133355E-15, 1.224646799147353207E-16, -1.000000000000000000 ) ) ;
#76 = CARTESIAN_POINT ( 'NONE',  ( 6.936185697429708856E-14, 4.749999999999988454, 19.86602540378446591 ) ) ;
#77 = CIRCLE ( 'NONE', #174, 4.749999999999991118 ) ;
#78 = DATE_AND_TIME ( #99, #193 ) ;
#79 =( GEOMETRIC_REPRESENTATION_CONTEXT ( 3 ) GLOBAL_UNCERTAINTY_ASSIGNED_CONTEXT ( ( #218 ) ) GLOBAL_UNIT_ASSIGNED_CONTEXT ( ( #29, #140, #13 ) ) REPRESENTATION_CONTEXT ( 'NONE', 'WORKASPACE' ) );
#80 = PERSON_AND_ORGANIZATION_ROLE ( 'design_supplier' ) ;
#81 = DIRECTION ( 'NONE',  ( -3.491481338843133355E-15, 1.224646799147353207E-16, -1.000000000000000000 ) ) ;
#82 = PERSON_AND_ORGANIZATION_ROLE ( 'classification_officer' ) ;
#83 = APPROVAL_PERSON_ORGANIZATION ( #217, #164, #105 ) ;
#84 = FACE_OUTER_BOUND ( 'NONE', #74, .T. ) ;
#85 = COORDINATED_UNIVERSAL_TIME_OFFSET ( 1, 0, .AHEAD. ) ;
#86 = DIRECTION ( 'NONE',  ( -3.491481338843133355E-15, 1.224646799147353207E-16, -1.000000000000000000 ) ) ;
#87 = PLANE ( 'NONE',  #268 ) ;
#88 = CARTESIAN_POINT ( 'NONE',  ( 0.0000000000000000000, 0.0000000000000000000, 0.0000000000000000000 ) ) ;
#89 = CC_DESIGN_APPROVAL ( #164, ( #212 ) ) ;
#90 = CARTESIAN_POINT ( 'NONE',  ( 6.936185697429708856E-14, -2.432886442252465138E-15, 19.86602540378446591 ) ) ;
#91 = EDGE_CURVE ( 'NONE', #73, #73, #207, .T. ) ;
#92 = ORIENTED_EDGE ( 'NONE', *, *, #47, .T. ) ;
#93 = LOCAL_TIME ( 9, 11, 1.000000000000000000, #215 ) ;
#94 = FACE_BOUND ( 'NONE', #63, .T. ) ;
#95 = DIRECTION ( 'NONE',  ( 0.0000000000000000000, 1.000000000000000000, 0.0000000000000000000 ) ) ;
#96 = EDGE_LOOP ( 'NONE', ( #126 ) ) ;
#97 = VERTEX_POINT ( 'NONE', #270 ) ;
#98 = CARTESIAN_POINT ( 'NONE',  ( 3.071394887490858903E-13, 4.999999999999990230, 87.96824583655184426 ) ) ;
#99 = CALENDAR_DATE ( 2021, 2, 12 ) ;
#100 = AXIS2_PLACEMENT_3D ( 'NONE', #1, #2, #175 ) ;
#101 = CALENDAR_DATE ( 2021, 2, 12 ) ;
#102 = DESIGN_CONTEXT ( 'detailed design', #121, 'design' ) ;
#103 = CARTESIAN_POINT ( 'NONE',  ( 6.633814543801952113E-14, -2.326828918379970970E-15, 19.00000000000000000 ) ) ;
#104 = FACE_OUTER_BOUND ( 'NONE', #114, .T. ) ;
#105 = APPROVAL_ROLE ( '' ) ;
#106 = AXIS2_PLACEMENT_3D ( 'NONE', #103, #26, #41 ) ;
#107 = DIRECTION ( 'NONE',  ( 3.491481338843133355E-15, -1.224646799147353207E-16, 1.000000000000000000 ) ) ;
#108 = CYLINDRICAL_SURFACE ( 'NONE', #37, 4.749999999999999112 ) ;
#109 = DIRECTION ( 'NONE',  ( 0.0000000000000000000, 1.000000000000000000, 0.0000000000000000000 ) ) ;
#110 = DIRECTION ( 'NONE',  ( 4.275831445896958607E-31, 1.000000000000000000, 1.224646799147353207E-16 ) ) ;
#111 = AXIS2_PLACEMENT_3D ( 'NONE', #247, #86, #216 ) ;
#112 = EDGE_LOOP ( 'NONE', ( #252 ) ) ;
#113 = EDGE_CURVE ( 'NONE', #273, #273, #201, .T. ) ;
#114 = EDGE_LOOP ( 'NONE', ( #22 ) ) ;
#115 = CLOSED_SHELL ( 'NONE', ( #8, #162, #20, #124, #155, #233, #128 ) ) ;
#116 = AXIS2_PLACEMENT_3D ( 'NONE', #177, #206, #110 ) ;
#117 = EDGE_LOOP ( 'NONE', ( #250 ) ) ;
#118 = FACE_OUTER_BOUND ( 'NONE', #10, .T. ) ;
#119 = AXIS2_PLACEMENT_3D ( 'NONE', #173, #241, #172 ) ;
#120 = DIRECTION ( 'NONE',  ( -3.491481338843133355E-15, 1.224646799147353207E-16, -1.000000000000000000 ) ) ;
#121 = APPLICATION_CONTEXT ( 'configuration controlled 3d designs of mechanical parts and assemblies' ) ;
#122 = EDGE_CURVE ( 'NONE', #11, #11, #225, .T. ) ;
#123 = DATE_TIME_ROLE ( 'creation_date' ) ;
#124 = ADVANCED_FACE ( 'NONE', ( #192, #19 ), #260, .F. ) ;
#125 = PERSON_AND_ORGANIZATION ( #142, #65 ) ;
#126 = ORIENTED_EDGE ( 'NONE', *, *, #122, .F. ) ;
#127 = PERSON_AND_ORGANIZATION ( #142, #65 ) ;
#128 = ADVANCED_FACE ( 'NONE', ( #259 ), #196, .F. ) ;
#129 = DATE_TIME_ROLE ( 'classification_date' ) ;
#130 = FACE_OUTER_BOUND ( 'NONE', #182, .T. ) ;
#131 = SHAPE_DEFINITION_REPRESENTATION ( #161, #56 ) ;
#132 = PRODUCT_DEFINITION_FORMATION_WITH_SPECIFIED_SOURCE ( 'ANY', '', #34, .NOT_KNOWN. ) ;
#133 = CARTESIAN_POINT ( 'NONE',  ( 3.037588764793525640E-13, -1.065442715258197209E-14, 87.00000000000000000 ) ) ;
#134 = ORIENTED_EDGE ( 'NONE', *, *, #248, .F. ) ;
#135 = CC_DESIGN_PERSON_AND_ORGANIZATION_ASSIGNMENT ( #280, #82, ( #212 ) ) ;
#136 = FACE_OUTER_BOUND ( 'NONE', #179, .T. ) ;
#137 = CARTESIAN_POINT ( 'NONE',  ( 4.608755367272936534E-13, 4.999999999999991118, 132.0000000000000000 ) ) ;
#138 = EDGE_CURVE ( 'NONE', #71, #71, #232, .T. ) ;
#139 = EDGE_LOOP ( 'NONE', ( #271 ) ) ;
#140 =( NAMED_UNIT ( * ) PLANE_ANGLE_UNIT ( ) SI_UNIT ( $, .RADIAN. ) );
#141 = ORIENTED_EDGE ( 'NONE', *, *, #138, .T. ) ;
#142 = PERSON ( 'UNSPECIFIED', 'UNSPECIFIED', 'UNSPECIFIED', ('UNSPECIFIED'), ('UNSPECIFIED'), ('UNSPECIFIED') ) ;
#143 = DIRECTION ( 'NONE',  ( 3.491481338843133355E-15, -1.224646799147353207E-16, 1.000000000000000000 ) ) ;
#144 = CYLINDRICAL_SURFACE ( 'NONE', #23, 5.000000000000004441 ) ;
#145 = CIRCLE ( 'NONE', #111, 4.850000000000002309 ) ;
#146 = MECHANICAL_CONTEXT ( 'NONE', #214, 'mechanical' ) ;
#147 = FACE_OUTER_BOUND ( 'NONE', #152, .T. ) ;
#148 = COORDINATED_UNIVERSAL_TIME_OFFSET ( 1, 0, .AHEAD. ) ;
#149 = ADVANCED_FACE ( 'NONE', ( #84 ), #87, .F. ) ;
#150 = DIRECTION ( 'NONE',  ( -4.275831445896958607E-31, -1.000000000000000000, -1.224646799147353207E-16 ) ) ;
#151 = DIRECTION ( 'NONE',  ( -4.275831445896958607E-31, -1.000000000000000000, -1.224646799147353207E-16 ) ) ;
#152 = EDGE_LOOP ( 'NONE', ( #253 ) ) ;
#153 = FACE_BOUND ( 'NONE', #5, .T. ) ;
#154 = ORIENTED_EDGE ( 'NONE', *, *, #113, .F. ) ;
#155 = ADVANCED_FACE ( 'NONE', ( #40, #130 ), #144, .T. ) ;
#156 = EDGE_LOOP ( 'NONE', ( #134 ) ) ;
#157 = ADVANCED_FACE ( 'NONE', ( #94, #136 ), #64, .T. ) ;
#158 = CARTESIAN_POINT ( 'NONE',  ( 4.643670180661366731E-13, 3.999999999999991562, 133.0000000000000000 ) ) ;
#159 = ORIENTED_EDGE ( 'NONE', *, *, #47, .F. ) ;
#160 = CARTESIAN_POINT ( 'NONE',  ( 6.936185697429708856E-14, -2.432886442252465138E-15, 19.86602540378446591 ) ) ;
#161 = PRODUCT_DEFINITION_SHAPE ( 'NONE', 'NONE',  #190 ) ;
#162 = ADVANCED_FACE ( 'NONE', ( #118, #153 ), #220, .T. ) ;
#163 = VERTEX_POINT ( 'NONE', #67 ) ;
#164 = APPROVAL ( #21, 'UNSPECIFIED' ) ;
#165 = AXIS2_PLACEMENT_3D ( 'NONE', #58, #219, #265 ) ;
#166 = APPROVAL_STATUS ( 'not_yet_approved' ) ;
#167 = PERSON_AND_ORGANIZATION ( #142, #65 ) ;
#168 = DIRECTION ( 'NONE',  ( 4.275831445896958607E-31, 1.000000000000000000, 1.224646799147353207E-16 ) ) ;
#169 = CIRCLE ( 'NONE', #119, 4.000000000000007994 ) ;
#170 = PERSON_AND_ORGANIZATION ( #142, #65 ) ;
#171 = CARTESIAN_POINT ( 'NONE',  ( -2.797947950767482129E-31, 9.813880326290468850E-33, -8.013641429613236023E-17 ) ) ;
#172 = DIRECTION ( 'NONE',  ( 0.0000000000000000000, 1.000000000000000000, 0.0000000000000000000 ) ) ;
#173 = CARTESIAN_POINT ( 'NONE',  ( 4.643670180661366731E-13, -1.628780242865979995E-14, 133.0000000000000000 ) ) ;
#174 = AXIS2_PLACEMENT_3D ( 'NONE', #90, #229, #30 ) ;
#175 = DIRECTION ( 'NONE',  ( 4.275831445896958607E-31, 1.000000000000000000, 1.224646799147353207E-16 ) ) ;
#176 = DATE_AND_TIME ( #52, #53 ) ;
#177 = CARTESIAN_POINT ( 'NONE',  ( 0.0000000000000000000, 0.0000000000000000000, 0.0000000000000000000 ) ) ;
#178 = EDGE_CURVE ( 'NONE', #44, #44, #77, .T. ) ;
#179 = EDGE_LOOP ( 'NONE', ( #141 ) ) ;
#180 = AXIS2_PLACEMENT_3D ( 'NONE', #197, #107, #151 ) ;
#181 = DIRECTION ( 'NONE',  ( 0.0000000000000000000, 1.000000000000000000, 0.0000000000000000000 ) ) ;
#182 = EDGE_LOOP ( 'NONE', ( #61 ) ) ;
#183 = CARTESIAN_POINT ( 'NONE',  ( 6.633814543801952113E-14, 5.249999999999997335, 19.00000000000000000 ) ) ;
#184 = DIRECTION ( 'NONE',  ( -4.402125587170826684E-31, -1.000000000000000000, -1.239088197126291310E-16 ) ) ;
#185 = CC_DESIGN_PERSON_AND_ORGANIZATION_ASSIGNMENT ( #278, #188, ( #132 ) ) ;
#186 = AXIS2_PLACEMENT_3D ( 'NONE', #198, #120, #274 ) ;
#187 = DIRECTION ( 'NONE',  ( 0.0000000000000000000, 0.0000000000000000000, 1.000000000000000000 ) ) ;
#188 = PERSON_AND_ORGANIZATION_ROLE ( 'creator' ) ;
#189 = CARTESIAN_POINT ( 'NONE',  ( 3.037588764793525640E-13, -1.040834085586084257E-14, 87.00000000000000000 ) ) ;
#190 = PRODUCT_DEFINITION ( 'UNKNOWN', '', #132, #102 ) ;
#191 = APPLICATION_PROTOCOL_DEFINITION ( 'international standard', 'config_control_design', 1994, #121 ) ;
#192 = FACE_OUTER_BOUND ( 'NONE', #228, .T. ) ;
#193 = LOCAL_TIME ( 9, 11, 1.000000000000000000, #277 ) ;
#194 = ORIENTED_EDGE ( 'NONE', *, *, #91, .T. ) ;
#195 = APPROVAL ( #166, 'UNSPECIFIED' ) ;
#196 = PLANE ( 'NONE',  #100 ) ;
#197 = CARTESIAN_POINT ( 'NONE',  ( 6.633814543801952113E-14, 3.936869429487373210E-32, 19.00000000000000000 ) ) ;
#198 = CARTESIAN_POINT ( 'NONE',  ( 6.633814543801952113E-14, -2.326828918379970970E-15, 19.00000000000000000 ) ) ;
#199 = ORIENTED_EDGE ( 'NONE', *, *, #178, .T. ) ;
#200 = EDGE_LOOP ( 'NONE', ( #154 ) ) ;
#201 = CIRCLE ( 'NONE', #106, 5.250000000000000000 ) ;
#202 = CARTESIAN_POINT ( 'NONE',  ( 0.0000000000000000000, 0.0000000000000000000, 0.0000000000000000000 ) ) ;
#203 = CC_DESIGN_DATE_AND_TIME_ASSIGNMENT ( #211, #129, ( #212 ) ) ;
#204 = DIRECTION ( 'NONE',  ( -3.491481338843133355E-15, 1.224646799147353207E-16, -1.000000000000000000 ) ) ;
#205 = ORIENTED_EDGE ( 'NONE', *, *, #51, .F. ) ;
#206 = DIRECTION ( 'NONE',  ( -3.491481338843133355E-15, 1.224646799147353207E-16, -1.000000000000000000 ) ) ;
#207 = CIRCLE ( 'NONE', #272, 4.750000000000007994 ) ;
#208 = CC_DESIGN_APPROVAL ( #257, ( #132 ) ) ;
#209 = CARTESIAN_POINT ( 'NONE',  ( 4.643670180661366731E-13, -1.628780242865979995E-14, 133.0000000000000000 ) ) ;
#210 = APPROVAL_ROLE ( '' ) ;
#211 = DATE_AND_TIME ( #240, #15 ) ;
#212 = SECURITY_CLASSIFICATION ( '', '', #235 ) ;
#213 = APPROVAL_ROLE ( '' ) ;
#214 = APPLICATION_CONTEXT ( 'configuration controlled 3d designs of mechanical parts and assemblies' ) ;
#215 = COORDINATED_UNIVERSAL_TIME_OFFSET ( 1, 0, .AHEAD. ) ;
#216 = DIRECTION ( 'NONE',  ( 4.275831445896957731E-31, 1.000000000000000000, 1.224646799147352961E-16 ) ) ;
#217 = PERSON_AND_ORGANIZATION ( #142, #65 ) ;
#218 = UNCERTAINTY_MEASURE_WITH_UNIT (LENGTH_MEASURE( 1.000000000000000082E-05 ), #29, 'distance_accuracy_value', 'NONE');
#219 = DIRECTION ( 'NONE',  ( -3.491481338843133355E-15, 1.224646799147353207E-16, -1.000000000000000000 ) ) ;
#220 = CONICAL_SURFACE ( 'NONE', #42, 4.749999999999991118, 0.5235987755982924874 ) ;
#221 = APPROVAL_PERSON_ORGANIZATION ( #125, #195, #213 ) ;
#222 = DIRECTION ( 'NONE',  ( 3.491481338843133355E-15, -1.224646799147353207E-16, 1.000000000000000000 ) ) ;
#223 = DIRECTION ( 'NONE',  ( 0.0000000000000000000, 1.000000000000000000, 0.0000000000000000000 ) ) ;
#224 = CARTESIAN_POINT ( 'NONE',  ( 1.396592535537251173E-15, -4.898587196589405063E-17, 0.3999999999999993561 ) ) ;
#225 = CIRCLE ( 'NONE', #14, 5.000000000000000888 ) ;
#226 = AXIS2_PLACEMENT_3D ( 'NONE', #224, #143, #184 ) ;
#227 = FACE_BOUND ( 'NONE', #117, .T. ) ;
#228 = EDGE_LOOP ( 'NONE', ( #46 ) ) ;
#229 = DIRECTION ( 'NONE',  ( -3.491481338843133355E-15, 1.224646799147353207E-16, -1.000000000000000000 ) ) ;
#230 = ADVANCED_FACE ( 'NONE', ( #50, #269 ), #49, .T. ) ;
#231 = DIRECTION ( 'NONE',  ( 4.275831445896958607E-31, 1.000000000000000000, 1.224646799147353454E-16 ) ) ;
#232 = CIRCLE ( 'NONE', #165, 5.249999999999997335 ) ;
#233 = ADVANCED_FACE ( 'NONE', ( #27, #227 ), #24, .T. ) ;
#234 = AXIS2_PLACEMENT_3D ( 'NONE', #9, #3, #95 ) ;
#235 = SECURITY_CLASSIFICATION_LEVEL ( 'unclassified' ) ;
#236 = EDGE_CURVE ( 'NONE', #163, #163, #251, .T. ) ;
#237 = PERSON_AND_ORGANIZATION_ROLE ( 'creator' ) ;
#238 = DATE_AND_TIME ( #282, #38 ) ;
#239 = ORIENTED_EDGE ( 'NONE', *, *, #122, .T. ) ;
#240 = CALENDAR_DATE ( 2021, 2, 12 ) ;
#241 = DIRECTION ( 'NONE',  ( -3.491481338843133355E-15, 1.224646799147353207E-16, -1.000000000000000000 ) ) ;
#242 = CC_DESIGN_DATE_AND_TIME_ASSIGNMENT ( #238, #123, ( #190 ) ) ;
#243 = FACE_OUTER_BOUND ( 'NONE', #263, .T. ) ;
#244 = MANIFOLD_SOLID_BREP ( 'Corps-Déplacer/Copier1[1]', #115 ) ;
#245 = APPROVAL_DATE_TIME ( #176, #164 ) ;
#246 = MANIFOLD_SOLID_BREP ( 'Corps-Déplacer/Copier1[2]', #68 ) ;
#247 = CARTESIAN_POINT ( 'NONE',  ( -5.595895901534964258E-31, 1.962776065258093770E-32, -1.602728285922647205E-16 ) ) ;
#248 = EDGE_CURVE ( 'NONE', #45, #45, #48, .T. ) ;
#249 = CARTESIAN_POINT ( 'NONE',  ( 3.037588764793525640E-13, 4.749999999999997335, 87.00000000000000000 ) ) ;
#250 = ORIENTED_EDGE ( 'NONE', *, *, #51, .T. ) ;
#251 = CIRCLE ( 'NONE', #186, 5.250000000000000000 ) ;
#252 = ORIENTED_EDGE ( 'NONE', *, *, #113, .T. ) ;
#253 = ORIENTED_EDGE ( 'NONE', *, *, #178, .F. ) ;
#254 = DIRECTION ( 'NONE',  ( -3.491481338843133355E-15, 1.224646799147353207E-16, -1.000000000000000000 ) ) ;
#255 = CC_DESIGN_PERSON_AND_ORGANIZATION_ASSIGNMENT ( #167, #237, ( #190 ) ) ;
#256 = PERSON_AND_ORGANIZATION_ROLE ( 'design_owner' ) ;
#257 = APPROVAL ( #16, 'UNSPECIFIED' ) ;
#258 = CARTESIAN_POINT ( 'NONE',  ( 0.0000000000000000000, 0.0000000000000000000, 0.0000000000000000000 ) ) ;
#259 = FACE_OUTER_BOUND ( 'NONE', #69, .T. ) ;
#260 = TOROIDAL_SURFACE ( 'NONE', #33, 6.750000000000007994, 2.000000000000001776 ) ;
#261 = CC_DESIGN_APPROVAL ( #195, ( #190 ) ) ;
#262 = APPROVAL_DATE_TIME ( #78, #195 ) ;
#263 = EDGE_LOOP ( 'NONE', ( #194 ) ) ;
#264 = CARTESIAN_POINT ( 'NONE',  ( 3.071394887490858903E-13, -1.077300306903406976E-14, 87.96824583655184426 ) ) ;
#265 = DIRECTION ( 'NONE',  ( 4.402125587170826684E-31, 1.000000000000000000, 1.239088197126291310E-16 ) ) ;
#266 = DIRECTION ( 'NONE',  ( -4.275831445896958607E-31, -1.000000000000000000, -1.224646799147353207E-16 ) ) ;
#267 = CARTESIAN_POINT ( 'NONE',  ( 1.396592535537253539E-15, 5.249999999999997335, 0.4000000000000000222 ) ) ;
#268 = AXIS2_PLACEMENT_3D ( 'NONE', #171, #60, #150 ) ;
#269 = FACE_OUTER_BOUND ( 'NONE', #112, .T. ) ;
#270 = CARTESIAN_POINT ( 'NONE',  ( 1.514188661106529085E-30, 4.850000000000002309, 4.336808689942017736E-16 ) ) ;
#271 = ORIENTED_EDGE ( 'NONE', *, *, #138, .F. ) ;
#272 = AXIS2_PLACEMENT_3D ( 'NONE', #133, #281, #223 ) ;
#273 = VERTEX_POINT ( 'NONE', #183 ) ;
#274 = DIRECTION ( 'NONE',  ( 0.0000000000000000000, 1.000000000000000000, 0.0000000000000000000 ) ) ;
#275 = AXIS2_PLACEMENT_3D ( 'NONE', #17, #222, #266 ) ;
#276 = AXIS2_PLACEMENT_3D ( 'NONE', #209, #204, #7 ) ;
#277 = COORDINATED_UNIVERSAL_TIME_OFFSET ( 1, 0, .AHEAD. ) ;
#278 = PERSON_AND_ORGANIZATION ( #142, #65 ) ;
#279 = DIRECTION ( 'NONE',  ( -3.491481338843133355E-15, 1.224646799147353207E-16, -1.000000000000000000 ) ) ;
#280 = PERSON_AND_ORGANIZATION ( #142, #65 ) ;
#281 = DIRECTION ( 'NONE',  ( -3.491481338843133355E-15, 1.224646799147353207E-16, -1.000000000000000000 ) ) ;
#282 = CALENDAR_DATE ( 2021, 2, 12 ) ;
#283 = DIRECTION ( 'NONE',  ( 4.275831445896958607E-31, 1.000000000000000000, 1.224646799147353207E-16 ) ) ;
ENDSEC;
END-ISO-10303-21;
