ISO-10303-21;
HEADER;
FILE_DESCRIPTION (( 'STEP AP203' ),
    '1' );
FILE_NAME ('200147.step',
    '2021-11-30T06:44:58',
    ( '' ),
    ( '' ),
    'SwSTEP 2.0',
    'SolidWorks 2019',
    '' );
FILE_SCHEMA (( 'CONFIG_CONTROL_DESIGN' ));
ENDSEC;

DATA;
#1 = PERSON_AND_ORGANIZATION_ROLE ( 'design_supplier' ) ;
#2 = CALENDAR_DATE ( 2021, 30, 11 ) ;
#3 = APPROVAL_DATE_TIME ( #281, #226 ) ;
#4 = ORIENTED_EDGE ( 'NONE', *, *, #176, .F. ) ;
#5 = CARTESIAN_POINT ( 'NONE',  ( 0.0000000000000000000, 0.0000000000000000000, 0.0000000000000000000 ) ) ;
#6 = CALENDAR_DATE ( 2021, 30, 11 ) ;
#7 = APPLICATION_CONTEXT ( 'configuration controlled 3d designs of mechanical parts and assemblies' ) ;
#8 = CALENDAR_DATE ( 2021, 30, 11 ) ;
#9 = CARTESIAN_POINT ( 'NONE',  ( 1.745740669421566678E-13, 1.199999999999995515, 50.00000000000000000 ) ) ;
#10 = EDGE_CURVE ( 'NONE', #233, #233, #36, .T. ) ;
#11 = DIRECTION ( 'NONE',  ( 0.0000000000000000000, 1.000000000000000000, 0.0000000000000000000 ) ) ;
#12 = DIRECTION ( 'NONE',  ( 0.0000000000000000000, 1.000000000000000000, 0.0000000000000000000 ) ) ;
#13 = DIRECTION ( 'NONE',  ( 3.763419529823620427E-31, 1.000000000000000000, 1.059308424509531513E-16 ) ) ;
#14 = CYLINDRICAL_SURFACE ( 'NONE', #20, 1.499999999999999112 ) ;
#15 = CARTESIAN_POINT ( 'NONE',  ( 2.886013015238226509E-14, -1.012277099146737952E-15, 8.265869798961828607 ) ) ;
#16 = FACE_OUTER_BOUND ( 'NONE', #89, .T. ) ;
#17 = CARTESIAN_POINT ( 'NONE',  ( -2.825943101092092216E-31, 9.912074095380016161E-33, -8.093822726912925668E-17 ) ) ;
#18 = CC_DESIGN_PERSON_AND_ORGANIZATION_ASSIGNMENT ( #136, #1, ( #155 ) ) ;
#19 = ADVANCED_FACE ( 'NONE', ( #37, #128 ), #250, .F. ) ;
#20 = AXIS2_PLACEMENT_3D ( 'NONE', #151, #146, #104 ) ;
#21 = FACE_BOUND ( 'NONE', #45, .T. ) ;
#22 = DIRECTION ( 'NONE',  ( 1.000000000000000000, 0.0000000000000000000, 0.0000000000000000000 ) ) ;
#23 = AXIS2_PLACEMENT_3D ( 'NONE', #301, #130, #219 ) ;
#24 = DIRECTION ( 'NONE',  ( 0.0000000000000000000, -1.000000000000000000, 0.0000000000000000000 ) ) ;
#25 = DATE_AND_TIME ( #141, #170 ) ;
#26 = EDGE_LOOP ( 'NONE', ( #244 ) ) ;
#27 = CC_DESIGN_PERSON_AND_ORGANIZATION_ASSIGNMENT ( #287, #204, ( #81 ) ) ;
#28 = PERSON_AND_ORGANIZATION ( #113, #38 ) ;
#29 = DIRECTION ( 'NONE',  ( -4.275831445896958607E-31, -1.000000000000000000, -1.224646799147353207E-16 ) ) ;
#30 = DIRECTION ( 'NONE',  ( 4.275831445896957731E-31, 1.000000000000000000, 1.224646799147353207E-16 ) ) ;
#31 = CARTESIAN_POINT ( 'NONE',  ( 2.793185071074506684E-14, 7.675020687772040626E-33, 8.000000000000000000 ) ) ;
#32 = DIRECTION ( 'NONE',  ( -3.491481338843133355E-15, 1.224646799147353207E-16, -1.000000000000000000 ) ) ;
#33 = CARTESIAN_POINT ( 'NONE',  ( 2.793185071074506684E-14, 7.675020687772040626E-33, 8.000000000000000000 ) ) ;
#34 = UNCERTAINTY_MEASURE_WITH_UNIT (LENGTH_MEASURE( 1.000000000000000082E-05 ), #225, 'distance_accuracy_value', 'NONE');
#35 = EDGE_CURVE ( 'NONE', #237, #237, #240, .T. ) ;
#36 = CIRCLE ( 'NONE', #82, 1.500000000000001554 ) ;
#37 = FACE_OUTER_BOUND ( 'NONE', #201, .T. ) ;
#38 = ORGANIZATION ( 'UNSPECIFIED', 'UNSPECIFIED', '' ) ;
#39 = FACE_BOUND ( 'NONE', #249, .T. ) ;
#40 = EDGE_LOOP ( 'NONE', ( #4 ) ) ;
#41 = EDGE_LOOP ( 'NONE', ( #247 ) ) ;
#42 = EDGE_LOOP ( 'NONE', ( #84 ) ) ;
#43 = CC_DESIGN_APPROVAL ( #226, ( #122 ) ) ;
#44 = PERSON_AND_ORGANIZATION ( #113, #38 ) ;
#45 = EDGE_LOOP ( 'NONE', ( #190 ) ) ;
#46 = DIRECTION ( 'NONE',  ( 0.0000000000000000000, 0.0000000000000000000, 1.000000000000000000 ) ) ;
#47 = FACE_OUTER_BOUND ( 'NONE', #269, .T. ) ;
#48 = CARTESIAN_POINT ( 'NONE',  ( 7.593233419482378568E-14, 1.499999999999994005, 21.74788487341112031 ) ) ;
#49 = VERTEX_POINT ( 'NONE', #9 ) ;
#50 = AXIS2_PLACEMENT_3D ( 'NONE', #102, #53, #13 ) ;
#51 = CARTESIAN_POINT ( 'NONE',  ( 2.793185071074506684E-14, -9.797174393178825657E-16, 8.000000000000000000 ) ) ;
#52 = AXIS2_PLACEMENT_3D ( 'NONE', #218, #110, #154 ) ;
#53 = DIRECTION ( 'NONE',  ( -3.491481338843133355E-15, 1.224646799147353207E-16, -1.000000000000000000 ) ) ;
#54 =( GEOMETRIC_REPRESENTATION_CONTEXT ( 3 ) GLOBAL_UNCERTAINTY_ASSIGNED_CONTEXT ( ( #34 ) ) GLOBAL_UNIT_ASSIGNED_CONTEXT ( ( #225, #256, #183 ) ) REPRESENTATION_CONTEXT ( 'NONE', 'WORKASPACE' ) );
#55 = DIRECTION ( 'NONE',  ( 3.491481338843133355E-15, -1.224646799147353207E-16, 1.000000000000000000 ) ) ;
#56 = CARTESIAN_POINT ( 'NONE',  ( 1.735266225405037467E-13, 1.499999999999995559, 49.70000000000000284 ) ) ;
#57 = AXIS2_PLACEMENT_3D ( 'NONE', #33, #78, #29 ) ;
#58 = CARTESIAN_POINT ( 'NONE',  ( 6.284666409917640040E-14, -2.204364238465235428E-15, 18.00000000000000000 ) ) ;
#59 = ORIENTED_EDGE ( 'NONE', *, *, #35, .T. ) ;
#60 = EDGE_CURVE ( 'NONE', #182, #182, #297, .T. ) ;
#61 = APPLICATION_CONTEXT ( 'configuration controlled 3d designs of mechanical parts and assemblies' ) ;
#62 = CC_DESIGN_APPROVAL ( #134, ( #302 ) ) ;
#63 = ORIENTED_EDGE ( 'NONE', *, *, #236, .F. ) ;
#64 = PERSON_AND_ORGANIZATION_ROLE ( 'creator' ) ;
#65 = CONICAL_SURFACE ( 'NONE', #77, 1.023499999999998966, 0.5235987755982925984 ) ;
#66 = CC_DESIGN_PERSON_AND_ORGANIZATION_ASSIGNMENT ( #28, #64, ( #155 ) ) ;
#67 = VERTEX_POINT ( 'NONE', #162 ) ;
#68 = ORIENTED_EDGE ( 'NONE', *, *, #187, .T. ) ;
#69 = ADVANCED_FACE ( 'NONE', ( #238, #214 ), #65, .T. ) ;
#70 = PERSON_AND_ORGANIZATION ( #113, #38 ) ;
#71 = APPROVAL_PERSON_ORGANIZATION ( #70, #174, #160 ) ;
#72 = DATE_AND_TIME ( #8, #129 ) ;
#73 = CARTESIAN_POINT ( 'NONE',  ( 8.728703347107833388E-16, 1.023499999999998966, 0.2500000000000000000 ) ) ;
#74 = PLANE ( 'NONE',  #156 ) ;
#75 = AXIS2_PLACEMENT_3D ( 'NONE', #5, #184, #282 ) ;
#76 = EDGE_LOOP ( 'NONE', ( #131 ) ) ;
#77 = AXIS2_PLACEMENT_3D ( 'NONE', #106, #177, #153 ) ;
#78 = DIRECTION ( 'NONE',  ( 3.491481338843133355E-15, -1.224646799147353207E-16, 1.000000000000000000 ) ) ;
#79 = DIRECTION ( 'NONE',  ( 4.275831445896959482E-31, 1.000000000000000000, 1.224646799147353207E-16 ) ) ;
#80 = ADVANCED_FACE ( 'NONE', ( #270, #111 ), #127, .T. ) ;
#81 = PRODUCT ( '200147', '200147', '', ( #230 ) ) ;
#82 = AXIS2_PLACEMENT_3D ( 'NONE', #278, #161, #255 ) ;
#83 = LOCAL_TIME ( 7, 44, 58.00000000000000000, #248 ) ;
#84 = ORIENTED_EDGE ( 'NONE', *, *, #10, .T. ) ;
#85 = ORIENTED_EDGE ( 'NONE', *, *, #216, .F. ) ;
#86 = EDGE_LOOP ( 'NONE', ( #263 ) ) ;
#87 = AXIS2_PLACEMENT_3D ( 'NONE', #289, #292, #193 ) ;
#88 = CC_DESIGN_APPROVAL ( #174, ( #155 ) ) ;
#89 = EDGE_LOOP ( 'NONE', ( #198 ) ) ;
#90 = APPROVAL_STATUS ( 'not_yet_approved' ) ;
#91 = SECURITY_CLASSIFICATION_LEVEL ( 'unclassified' ) ;
#92 = PRODUCT_RELATED_PRODUCT_CATEGORY ( 'detail', '', ( #81 ) ) ;
#93 = APPROVAL_STATUS ( 'not_yet_approved' ) ;
#94 = ADVANCED_FACE ( 'NONE', ( #243, #39 ), #277, .T. ) ;
#95 = APPROVAL_ROLE ( '' ) ;
#96 = AXIS2_PLACEMENT_3D ( 'NONE', #212, #262, #125 ) ;
#97 = PERSON_AND_ORGANIZATION ( #113, #38 ) ;
#98 = VERTEX_POINT ( 'NONE', #142 ) ;
#99 = PRODUCT_DEFINITION_SHAPE ( 'NONE', 'NONE',  #122 ) ;
#100 = CARTESIAN_POINT ( 'NONE',  ( 6.284666409917640040E-14, 0.8699999999999979972, 18.00000000000000000 ) ) ;
#101 = CIRCLE ( 'NONE', #209, 0.8700000000000001066 ) ;
#102 = CARTESIAN_POINT ( 'NONE',  ( 8.728703347107829444E-16, -3.061616997868381785E-17, 0.2499999999999998890 ) ) ;
#103 = DIRECTION ( 'NONE',  ( -4.275831445896958607E-31, -1.000000000000000000, -1.224646799147353207E-16 ) ) ;
#104 = DIRECTION ( 'NONE',  ( 4.275831445896958607E-31, 1.000000000000000000, 1.224646799147353454E-16 ) ) ;
#105 = FACE_OUTER_BOUND ( 'NONE', #41, .T. ) ;
#106 = CARTESIAN_POINT ( 'NONE',  ( 8.728703347107829444E-16, -3.061616997868381785E-17, 0.2499999999999998890 ) ) ;
#107 = CIRCLE ( 'NONE', #224, 1.499999999999996669 ) ;
#108 = FACE_OUTER_BOUND ( 'NONE', #231, .T. ) ;
#109 = CONICAL_SURFACE ( 'NONE', #217, 1.499999999999996669, 0.1745329251994261199 ) ;
#110 = DIRECTION ( 'NONE',  ( -3.491481338843133355E-15, 1.224646799147353207E-16, -1.000000000000000000 ) ) ;
#111 = FACE_BOUND ( 'NONE', #76, .T. ) ;
#112 = ADVANCED_FACE ( 'NONE', ( #21, #284 ), #109, .T. ) ;
#113 = PERSON ( 'UNSPECIFIED', 'UNSPECIFIED', 'UNSPECIFIED', ('UNSPECIFIED'), ('UNSPECIFIED'), ('UNSPECIFIED') ) ;
#114 = VERTEX_POINT ( 'NONE', #73 ) ;
#115 = MANIFOLD_SOLID_BREP ( 'Corps-Déplacer/Copier1[1]', #173 ) ;
#116 = EDGE_LOOP ( 'NONE', ( #235 ) ) ;
#117 = VERTEX_POINT ( 'NONE', #100 ) ;
#118 = CARTESIAN_POINT ( 'NONE',  ( 2.793185071074506684E-14, -9.797174393178825657E-16, 8.000000000000000000 ) ) ;
#119 = APPLICATION_PROTOCOL_DEFINITION ( 'international standard', 'config_control_design', 1994, #61 ) ;
#120 = AXIS2_PLACEMENT_3D ( 'NONE', #195, #296, #12 ) ;
#121 = DIRECTION ( 'NONE',  ( 3.491481338843133355E-15, -1.224646799147353207E-16, 1.000000000000000000 ) ) ;
#122 = PRODUCT_DEFINITION ( 'UNKNOWN', '', #155, #272 ) ;
#123 = ADVANCED_FACE ( 'NONE', ( #257, #47 ), #202, .T. ) ;
#124 = DIRECTION ( 'NONE',  ( -3.491481338843133355E-15, 1.224646799147353207E-16, -1.000000000000000000 ) ) ;
#125 = DIRECTION ( 'NONE',  ( 4.275831445896958607E-31, 1.000000000000000000, 1.224646799147353207E-16 ) ) ;
#126 = DIRECTION ( 'NONE',  ( 0.0000000000000000000, 1.000000000000000000, 0.0000000000000000000 ) ) ;
#127 = CONICAL_SURFACE ( 'NONE', #52, 1.200000000000001732, 0.7853981633974453924 ) ;
#128 = FACE_OUTER_BOUND ( 'NONE', #169, .T. ) ;
#129 = LOCAL_TIME ( 7, 44, 58.00000000000000000, #185 ) ;
#130 = DIRECTION ( 'NONE',  ( -3.491481338843133355E-15, 1.224646799147353207E-16, -1.000000000000000000 ) ) ;
#131 = ORIENTED_EDGE ( 'NONE', *, *, #145, .T. ) ;
#132 = EDGE_CURVE ( 'NONE', #114, #114, #168, .T. ) ;
#133 = ORIENTED_EDGE ( 'NONE', *, *, #187, .F. ) ;
#134 = APPROVAL ( #90, 'UNSPECIFIED' ) ;
#135 = ORIENTED_EDGE ( 'NONE', *, *, #132, .T. ) ;
#136 = PERSON_AND_ORGANIZATION ( #113, #38 ) ;
#137 = ORIENTED_EDGE ( 'NONE', *, *, #60, .T. ) ;
#138 = APPROVAL_ROLE ( '' ) ;
#139 = APPLICATION_PROTOCOL_DEFINITION ( 'international standard', 'config_control_design', 1994, #7 ) ;
#140 = VERTEX_POINT ( 'NONE', #48 ) ;
#141 = CALENDAR_DATE ( 2021, 30, 11 ) ;
#142 = CARTESIAN_POINT ( 'NONE',  ( -1.892735826383161356E-31, 0.8791624327025946428, -5.421010862427522170E-17 ) ) ;
#143 = EDGE_CURVE ( 'NONE', #67, #67, #163, .T. ) ;
#144 = FACE_OUTER_BOUND ( 'NONE', #223, .T. ) ;
#145 = EDGE_CURVE ( 'NONE', #49, #49, #291, .T. ) ;
#146 = DIRECTION ( 'NONE',  ( -3.491481338843133355E-15, 1.224646799147353207E-16, -1.000000000000000000 ) ) ;
#147 = ORIENTED_EDGE ( 'NONE', *, *, #132, .F. ) ;
#148 = CIRCLE ( 'NONE', #96, 0.8791624327025946428 ) ;
#149 = FACE_OUTER_BOUND ( 'NONE', #26, .T. ) ;
#150 = DIRECTION ( 'NONE',  ( 0.0000000000000000000, 1.000000000000000000, 0.0000000000000000000 ) ) ;
#151 = CARTESIAN_POINT ( 'NONE',  ( 0.0000000000000000000, 0.0000000000000000000, 0.0000000000000000000 ) ) ;
#152 = DIRECTION ( 'NONE',  ( -3.491481338843133355E-15, 1.224646799147353207E-16, -1.000000000000000000 ) ) ;
#153 = DIRECTION ( 'NONE',  ( -3.763419529823620427E-31, -1.000000000000000000, -1.059308424509531513E-16 ) ) ;
#154 = DIRECTION ( 'NONE',  ( 0.0000000000000000000, 1.000000000000000000, 0.0000000000000000000 ) ) ;
#155 = PRODUCT_DEFINITION_FORMATION_WITH_SPECIFIED_SOURCE ( 'ANY', '', #81, .NOT_KNOWN. ) ;
#156 = AXIS2_PLACEMENT_3D ( 'NONE', #17, #55, #103 ) ;
#157 = CALENDAR_DATE ( 2021, 30, 11 ) ;
#158 = AXIS2_PLACEMENT_3D ( 'NONE', #15, #267, #150 ) ;
#159 = PERSON_AND_ORGANIZATION ( #113, #38 ) ;
#160 = APPROVAL_ROLE ( '' ) ;
#161 = DIRECTION ( 'NONE',  ( -3.491481338843133355E-15, 1.224646799147353207E-16, -1.000000000000000000 ) ) ;
#162 = CARTESIAN_POINT ( 'NONE',  ( 2.793185071074506684E-14, 1.023499999999998966, 8.000000000000000000 ) ) ;
#163 = CIRCLE ( 'NONE', #261, 1.023500000000000076 ) ;
#164 = CARTESIAN_POINT ( 'NONE',  ( 0.0000000000000000000, 0.0000000000000000000, 0.0000000000000000000 ) ) ;
#165 = APPROVAL_DATE_TIME ( #25, #174 ) ;
#166 = CC_DESIGN_DATE_AND_TIME_ASSIGNMENT ( #180, #220, ( #302 ) ) ;
#167 = FACE_OUTER_BOUND ( 'NONE', #116, .T. ) ;
#168 = CIRCLE ( 'NONE', #50, 1.023499999999998966 ) ;
#169 = EDGE_LOOP ( 'NONE', ( #59 ) ) ;
#170 = LOCAL_TIME ( 7, 44, 58.00000000000000000, #258 ) ;
#171 = CARTESIAN_POINT ( 'NONE',  ( 0.0000000000000000000, 0.0000000000000000000, 0.0000000000000000000 ) ) ;
#172 = DIRECTION ( 'NONE',  ( 0.0000000000000000000, 1.000000000000000000, 0.0000000000000000000 ) ) ;
#173 = CLOSED_SHELL ( 'NONE', ( #241, #94, #123, #19, #112, #227, #80, #288 ) ) ;
#174 = APPROVAL ( #93, 'UNSPECIFIED' ) ;
#175 = EDGE_LOOP ( 'NONE', ( #63 ) ) ;
#176 = EDGE_CURVE ( 'NONE', #140, #140, #107, .T. ) ;
#177 = DIRECTION ( 'NONE',  ( 3.491481338843133355E-15, -1.224646799147353207E-16, 1.000000000000000000 ) ) ;
#178 = COORDINATED_UNIVERSAL_TIME_OFFSET ( 1, 0, .AHEAD. ) ;
#179 = EDGE_LOOP ( 'NONE', ( #85 ) ) ;
#180 = DATE_AND_TIME ( #2, #83 ) ;
#181 = DIRECTION ( 'NONE',  ( 0.0000000000000000000, 1.000000000000000000, 0.0000000000000000000 ) ) ;
#182 = VERTEX_POINT ( 'NONE', #260 ) ;
#183 =( NAMED_UNIT ( * ) SI_UNIT ( $, .STERADIAN. ) SOLID_ANGLE_UNIT ( ) );
#184 = DIRECTION ( 'NONE',  ( -3.491481338843133355E-15, 1.224646799147353207E-16, -1.000000000000000000 ) ) ;
#185 = COORDINATED_UNIVERSAL_TIME_OFFSET ( 1, 0, .AHEAD. ) ;
#186 = VERTEX_POINT ( 'NONE', #229 ) ;
#187 = EDGE_CURVE ( 'NONE', #117, #117, #101, .T. ) ;
#188 = DATE_TIME_ROLE ( 'creation_date' ) ;
#189 = FACE_OUTER_BOUND ( 'NONE', #42, .T. ) ;
#190 = ORIENTED_EDGE ( 'NONE', *, *, #35, .F. ) ;
#191 = PLANE ( 'NONE',  #87 ) ;
#192 = APPROVAL_PERSON_ORGANIZATION ( #44, #134, #138 ) ;
#193 = DIRECTION ( 'NONE',  ( 4.275831445896958607E-31, 1.000000000000000000, 1.224646799147353207E-16 ) ) ;
#194 = CYLINDRICAL_SURFACE ( 'NONE', #206, 1.023499999999999632 ) ;
#195 = CARTESIAN_POINT ( 'NONE',  ( 6.405924284287273902E-14, -2.246895775456748746E-15, 18.34729635533384240 ) ) ;
#196 = CC_DESIGN_DATE_AND_TIME_ASSIGNMENT ( #72, #188, ( #122 ) ) ;
#197 = ORIENTED_EDGE ( 'NONE', *, *, #10, .F. ) ;
#198 = ORIENTED_EDGE ( 'NONE', *, *, #143, .F. ) ;
#199 = CLOSED_SHELL ( 'NONE', ( #264, #69, #290, #253 ) ) ;
#200 = AXIS2_PLACEMENT_3D ( 'NONE', #298, #152, #30 ) ;
#201 = EDGE_LOOP ( 'NONE', ( #133 ) ) ;
#202 = CYLINDRICAL_SURFACE ( 'NONE', #75, 0.8699999999999994404 ) ;
#203 = PERSON_AND_ORGANIZATION ( #113, #38 ) ;
#204 = PERSON_AND_ORGANIZATION_ROLE ( 'design_owner' ) ;
#205 = PERSON_AND_ORGANIZATION_ROLE ( 'creator' ) ;
#206 = AXIS2_PLACEMENT_3D ( 'NONE', #171, #32, #79 ) ;
#207 = LOCAL_TIME ( 7, 44, 58.00000000000000000, #178 ) ;
#208 = CARTESIAN_POINT ( 'NONE',  ( 6.405924284287273902E-14, 0.9003844939755785148, 18.34729635533384240 ) ) ;
#209 = AXIS2_PLACEMENT_3D ( 'NONE', #58, #234, #11 ) ;
#210 = AXIS2_PLACEMENT_3D ( 'NONE', #31, #121, #215 ) ;
#211 = PLANE ( 'NONE',  #210 ) ;
#212 = CARTESIAN_POINT ( 'NONE',  ( -5.651886202184184432E-31, 1.982414819076003232E-32, -1.618764545382585134E-16 ) ) ;
#213 = AXIS2_PLACEMENT_3D ( 'NONE', #222, #275, #294 ) ;
#214 = FACE_OUTER_BOUND ( 'NONE', #273, .T. ) ;
#215 = DIRECTION ( 'NONE',  ( -4.275831445896958607E-31, -1.000000000000000000, -1.224646799147353207E-16 ) ) ;
#216 = EDGE_CURVE ( 'NONE', #186, #186, #280, .T. ) ;
#217 = AXIS2_PLACEMENT_3D ( 'NONE', #259, #232, #24 ) ;
#218 = CARTESIAN_POINT ( 'NONE',  ( 1.745740669421566678E-13, -6.123233995736766085E-15, 50.00000000000000000 ) ) ;
#219 = DIRECTION ( 'NONE',  ( 0.0000000000000000000, 1.000000000000000000, 0.0000000000000000000 ) ) ;
#220 = DATE_TIME_ROLE ( 'classification_date' ) ;
#221 = SHAPE_DEFINITION_REPRESENTATION ( #99, #279 ) ;
#222 = CARTESIAN_POINT ( 'NONE',  ( 1.745740669421566678E-13, -6.123233995736766085E-15, 50.00000000000000000 ) ) ;
#223 = EDGE_LOOP ( 'NONE', ( #283 ) ) ;
#224 = AXIS2_PLACEMENT_3D ( 'NONE', #295, #124, #172 ) ;
#225 =( LENGTH_UNIT ( ) NAMED_UNIT ( * ) SI_UNIT ( .MILLI., .METRE. ) );
#226 = APPROVAL ( #285, 'UNSPECIFIED' ) ;
#227 = ADVANCED_FACE ( 'NONE', ( #268, #189 ), #14, .T. ) ;
#228 = COORDINATED_UNIVERSAL_TIME_OFFSET ( 1, 0, .AHEAD. ) ;
#229 = CARTESIAN_POINT ( 'NONE',  ( 2.793185071074506684E-14, 1.023499999999998966, 8.000000000000000000 ) ) ;
#230 = MECHANICAL_CONTEXT ( 'NONE', #7, 'mechanical' ) ;
#231 = EDGE_LOOP ( 'NONE', ( #147 ) ) ;
#232 = DIRECTION ( 'NONE',  ( 3.491481338843133355E-15, -1.224646799147353207E-16, 1.000000000000000000 ) ) ;
#233 = VERTEX_POINT ( 'NONE', #56 ) ;
#234 = DIRECTION ( 'NONE',  ( -3.491481338843133355E-15, 1.224646799147353207E-16, -1.000000000000000000 ) ) ;
#235 = ORIENTED_EDGE ( 'NONE', *, *, #145, .F. ) ;
#236 = EDGE_CURVE ( 'NONE', #98, #98, #148, .T. ) ;
#237 = VERTEX_POINT ( 'NONE', #208 ) ;
#238 = FACE_BOUND ( 'NONE', #175, .T. ) ;
#239 = PLANE ( 'NONE',  #57 ) ;
#240 = CIRCLE ( 'NONE', #120, 0.9003844939755807353 ) ;
#241 = ADVANCED_FACE ( 'NONE', ( #149 ), #211, .F. ) ;
#242 = MANIFOLD_SOLID_BREP ( 'Corps-Déplacer/Copier1[2]', #199 ) ;
#243 = FACE_OUTER_BOUND ( 'NONE', #179, .T. ) ;
#244 = ORIENTED_EDGE ( 'NONE', *, *, #216, .T. ) ;
#245 = ORIENTED_EDGE ( 'NONE', *, *, #176, .T. ) ;
#246 = DATE_AND_TIME ( #157, #207 ) ;
#247 = ORIENTED_EDGE ( 'NONE', *, *, #236, .T. ) ;
#248 = COORDINATED_UNIVERSAL_TIME_OFFSET ( 1, 0, .AHEAD. ) ;
#249 = EDGE_LOOP ( 'NONE', ( #137 ) ) ;
#250 = TOROIDAL_SURFACE ( 'NONE', #200, 2.870000000000000107, 2.000000000000000000 ) ;
#251 = CC_DESIGN_PERSON_AND_ORGANIZATION_ASSIGNMENT ( #97, #205, ( #122 ) ) ;
#252 = PERSON_AND_ORGANIZATION_ROLE ( 'classification_officer' ) ;
#253 = ADVANCED_FACE ( 'NONE', ( #16 ), #239, .T. ) ;
#254 = AXIS2_PLACEMENT_3D ( 'NONE', #51, #265, #126 ) ;
#255 = DIRECTION ( 'NONE',  ( 0.0000000000000000000, 1.000000000000000000, 0.0000000000000000000 ) ) ;
#256 =( NAMED_UNIT ( * ) PLANE_ANGLE_UNIT ( ) SI_UNIT ( $, .RADIAN. ) );
#257 = FACE_OUTER_BOUND ( 'NONE', #86, .T. ) ;
#258 = COORDINATED_UNIVERSAL_TIME_OFFSET ( 1, 0, .AHEAD. ) ;
#259 = CARTESIAN_POINT ( 'NONE',  ( 7.593233419482378568E-14, -2.663347759844807185E-15, 21.74788487341112031 ) ) ;
#260 = CARTESIAN_POINT ( 'NONE',  ( 2.886013015238226509E-14, 0.8699999999999978861, 8.265869798961828607 ) ) ;
#261 = AXIS2_PLACEMENT_3D ( 'NONE', #118, #303, #181 ) ;
#262 = DIRECTION ( 'NONE',  ( -3.491481338843133355E-15, 1.224646799147353207E-16, -1.000000000000000000 ) ) ;
#263 = ORIENTED_EDGE ( 'NONE', *, *, #60, .F. ) ;
#264 = ADVANCED_FACE ( 'NONE', ( #105 ), #74, .F. ) ;
#265 = DIRECTION ( 'NONE',  ( -3.491481338843133355E-15, 1.224646799147353207E-16, -1.000000000000000000 ) ) ;
#266 = CC_DESIGN_SECURITY_CLASSIFICATION ( #302, ( #155 ) ) ;
#267 = DIRECTION ( 'NONE',  ( -3.491481338843133355E-15, 1.224646799147353207E-16, -1.000000000000000000 ) ) ;
#268 = FACE_OUTER_BOUND ( 'NONE', #40, .T. ) ;
#269 = EDGE_LOOP ( 'NONE', ( #68 ) ) ;
#270 = FACE_OUTER_BOUND ( 'NONE', #300, .T. ) ;
#271 = EDGE_LOOP ( 'NONE', ( #245 ) ) ;
#272 = DESIGN_CONTEXT ( 'detailed design', #61, 'design' ) ;
#273 = EDGE_LOOP ( 'NONE', ( #135 ) ) ;
#274 = APPROVAL_DATE_TIME ( #246, #134 ) ;
#275 = DIRECTION ( 'NONE',  ( -3.491481338843133355E-15, 1.224646799147353207E-16, -1.000000000000000000 ) ) ;
#276 = CC_DESIGN_PERSON_AND_ORGANIZATION_ASSIGNMENT ( #159, #252, ( #302 ) ) ;
#277 = CONICAL_SURFACE ( 'NONE', #23, 0.8699999999999987743, 0.5235987755982919323 ) ;
#278 = CARTESIAN_POINT ( 'NONE',  ( 1.735266225405037467E-13, -6.086494591762345225E-15, 49.70000000000000284 ) ) ;
#279 = ADVANCED_BREP_SHAPE_REPRESENTATION ( '200147', ( #115, #242, #286 ), #54 ) ;
#280 = CIRCLE ( 'NONE', #254, 1.023500000000000076 ) ;
#281 = DATE_AND_TIME ( #6, #293 ) ;
#282 = DIRECTION ( 'NONE',  ( 4.275831445896959482E-31, 1.000000000000000000, 1.224646799147353207E-16 ) ) ;
#283 = ORIENTED_EDGE ( 'NONE', *, *, #143, .T. ) ;
#284 = FACE_OUTER_BOUND ( 'NONE', #271, .T. ) ;
#285 = APPROVAL_STATUS ( 'not_yet_approved' ) ;
#286 = AXIS2_PLACEMENT_3D ( 'NONE', #164, #46, #22 ) ;
#287 = PERSON_AND_ORGANIZATION ( #113, #38 ) ;
#288 = ADVANCED_FACE ( 'NONE', ( #167 ), #191, .F. ) ;
#289 = CARTESIAN_POINT ( 'NONE',  ( 1.745740669421566678E-13, 8.998558695971067645E-33, 50.00000000000000000 ) ) ;
#290 = ADVANCED_FACE ( 'NONE', ( #108, #144 ), #194, .T. ) ;
#291 = CIRCLE ( 'NONE', #213, 1.200000000000001732 ) ;
#292 = DIRECTION ( 'NONE',  ( -3.491481338843133355E-15, 1.224646799147353207E-16, -1.000000000000000000 ) ) ;
#293 = LOCAL_TIME ( 7, 44, 58.00000000000000000, #228 ) ;
#294 = DIRECTION ( 'NONE',  ( 0.0000000000000000000, 1.000000000000000000, 0.0000000000000000000 ) ) ;
#295 = CARTESIAN_POINT ( 'NONE',  ( 7.593233419482378568E-14, -2.663347759844807185E-15, 21.74788487341112031 ) ) ;
#296 = DIRECTION ( 'NONE',  ( -3.491481338843133355E-15, 1.224646799147353207E-16, -1.000000000000000000 ) ) ;
#297 = CIRCLE ( 'NONE', #158, 0.8699999999999987743 ) ;
#298 = CARTESIAN_POINT ( 'NONE',  ( 6.284666409917640040E-14, -2.168404344971008868E-15, 18.00000000000000000 ) ) ;
#299 = APPROVAL_PERSON_ORGANIZATION ( #203, #226, #95 ) ;
#300 = EDGE_LOOP ( 'NONE', ( #197 ) ) ;
#301 = CARTESIAN_POINT ( 'NONE',  ( 2.886013015238226509E-14, -1.012277099146737952E-15, 8.265869798961828607 ) ) ;
#302 = SECURITY_CLASSIFICATION ( '', '', #91 ) ;
#303 = DIRECTION ( 'NONE',  ( -3.491481338843133355E-15, 1.224646799147353207E-16, -1.000000000000000000 ) ) ;
ENDSEC;
END-ISO-10303-21;
