ISO-10303-21;
HEADER;
FILE_DESCRIPTION (( 'STEP AP203' ),
    '1' );
FILE_NAME ('200146.step',
    '2021-11-30T08:32:38',
    ( '' ),
    ( '' ),
    'SwSTEP 2.0',
    'SolidWorks 2019',
    '' );
FILE_SCHEMA (( 'CONFIG_CONTROL_DESIGN' ));
ENDSEC;

DATA;
#1 = DIRECTION ( 'NONE',  ( 0.0000000000000000000, 1.000000000000000000, 0.0000000000000000000 ) ) ;
#2 = FACE_OUTER_BOUND ( 'NONE', #274, .T. ) ;
#3 = VERTEX_POINT ( 'NONE', #193 ) ;
#4 = EDGE_CURVE ( 'NONE', #83, #83, #130, .T. ) ;
#5 = CARTESIAN_POINT ( 'NONE',  ( 8.728703347107829444E-16, -3.061616997868381785E-17, 0.2499999999999998890 ) ) ;
#6 = FACE_OUTER_BOUND ( 'NONE', #138, .T. ) ;
#7 = CC_DESIGN_APPROVAL ( #293, ( #225 ) ) ;
#8 = ADVANCED_FACE ( 'NONE', ( #122 ), #207, .F. ) ;
#9 = SECURITY_CLASSIFICATION_LEVEL ( 'unclassified' ) ;
#10 = CARTESIAN_POINT ( 'NONE',  ( 5.935518276033326704E-14, 0.7949999999999979305, 17.00000000000000000 ) ) ;
#11 = PERSON_AND_ORGANIZATION ( #170, #244 ) ;
#12 = ORIENTED_EDGE ( 'NONE', *, *, #226, .F. ) ;
#13 = DATE_AND_TIME ( #86, #41 ) ;
#14 = AXIS2_PLACEMENT_3D ( 'NONE', #143, #102, #24 ) ;
#15 = CIRCLE ( 'NONE', #229, 0.7541624327025947538 ) ;
#16 = APPROVAL ( #183, 'UNSPECIFIED' ) ;
#17 = APPROVAL_ROLE ( '' ) ;
#18 = ORIENTED_EDGE ( 'NONE', *, *, #223, .T. ) ;
#19 = ADVANCED_FACE ( 'NONE', ( #231, #205 ), #297, .T. ) ;
#20 = ORIENTED_EDGE ( 'NONE', *, *, #254, .F. ) ;
#21 = CONICAL_SURFACE ( 'NONE', #25, 0.8984999999999989662, 0.5235987755982923764 ) ;
#22 = DIRECTION ( 'NONE',  ( 4.275831445896958607E-31, 1.000000000000000000, 1.224646799147353207E-16 ) ) ;
#23 = EDGE_LOOP ( 'NONE', ( #65 ) ) ;
#24 = DIRECTION ( 'NONE',  ( 4.275831445896958607E-31, 1.000000000000000000, 1.224646799147353207E-16 ) ) ;
#25 = AXIS2_PLACEMENT_3D ( 'NONE', #81, #238, #218 ) ;
#26 = DESIGN_CONTEXT ( 'detailed design', #139, 'design' ) ;
#27 = CARTESIAN_POINT ( 'NONE',  ( 2.506627765991136237E-14, -8.792066668447528551E-16, 7.179267258583378108 ) ) ;
#28 = DIRECTION ( 'NONE',  ( 4.275831445896958607E-31, 1.000000000000000000, 1.224646799147353207E-16 ) ) ;
#29 = CARTESIAN_POINT ( 'NONE',  ( 2.444036937190193349E-14, -8.572527594031473190E-16, 7.000000000000000000 ) ) ;
#30 = EDGE_CURVE ( 'NONE', #261, #261, #301, .T. ) ;
#31 = CYLINDRICAL_SURFACE ( 'NONE', #216, 1.499999999999999112 ) ;
#32 = DIRECTION ( 'NONE',  ( -3.491481338843133355E-15, 1.224646799147353207E-16, -1.000000000000000000 ) ) ;
#33 = PERSON_AND_ORGANIZATION_ROLE ( 'creator' ) ;
#34 = CALENDAR_DATE ( 2021, 30, 11 ) ;
#35 = PRODUCT_DEFINITION_SHAPE ( 'NONE', 'NONE',  #159 ) ;
#36 = DIRECTION ( 'NONE',  ( 0.0000000000000000000, 0.0000000000000000000, 1.000000000000000000 ) ) ;
#37 = ORIENTED_EDGE ( 'NONE', *, *, #201, .F. ) ;
#38 =( LENGTH_UNIT ( ) NAMED_UNIT ( * ) SI_UNIT ( .MILLI., .METRE. ) );
#39 = AXIS2_PLACEMENT_3D ( 'NONE', #146, #165, #279 ) ;
#40 = CARTESIAN_POINT ( 'NONE',  ( 2.444036937190193349E-14, 0.8984999999999989662, 7.000000000000000000 ) ) ;
#41 = LOCAL_TIME ( 9, 32, 38.00000000000000000, #137 ) ;
#42 = EDGE_LOOP ( 'NONE', ( #96 ) ) ;
#43 = ORIENTED_EDGE ( 'NONE', *, *, #226, .T. ) ;
#44 = FACE_OUTER_BOUND ( 'NONE', #60, .T. ) ;
#45 = APPROVAL_STATUS ( 'not_yet_approved' ) ;
#46 = FACE_OUTER_BOUND ( 'NONE', #248, .T. ) ;
#47 = CIRCLE ( 'NONE', #243, 0.8984999999999989662 ) ;
#48 = DIRECTION ( 'NONE',  ( -3.491481338843133355E-15, 1.224646799147353207E-16, -1.000000000000000000 ) ) ;
#49 = DIRECTION ( 'NONE',  ( -3.491481338843133355E-15, 1.224646799147353207E-16, -1.000000000000000000 ) ) ;
#50 = CARTESIAN_POINT ( 'NONE',  ( 6.056776150402963091E-14, 0.8253844939755781152, 17.34729635533384595 ) ) ;
#51 = LOCAL_TIME ( 9, 32, 38.00000000000000000, #121 ) ;
#52 = VERTEX_POINT ( 'NONE', #287 ) ;
#53 = DIRECTION ( 'NONE',  ( 3.491481338843133355E-15, -1.224646799147353207E-16, 1.000000000000000000 ) ) ;
#54 = CARTESIAN_POINT ( 'NONE',  ( 1.735266225405037467E-13, 1.499999999999995559, 49.70000000000000284 ) ) ;
#55 = AXIS2_PLACEMENT_3D ( 'NONE', #209, #95, #227 ) ;
#56 = LOCAL_TIME ( 9, 32, 38.00000000000000000, #273 ) ;
#57 = FACE_OUTER_BOUND ( 'NONE', #62, .T. ) ;
#58 = VERTEX_POINT ( 'NONE', #40 ) ;
#59 = VERTEX_POINT ( 'NONE', #296 ) ;
#60 = EDGE_LOOP ( 'NONE', ( #292 ) ) ;
#61 = APPLICATION_PROTOCOL_DEFINITION ( 'international standard', 'config_control_design', 1994, #139 ) ;
#62 = EDGE_LOOP ( 'NONE', ( #18 ) ) ;
#63 = ADVANCED_FACE ( 'NONE', ( #208, #300 ), #123, .F. ) ;
#64 = APPROVAL_STATUS ( 'not_yet_approved' ) ;
#65 = ORIENTED_EDGE ( 'NONE', *, *, #235, .F. ) ;
#66 = PERSON_AND_ORGANIZATION ( #170, #244 ) ;
#67 = AXIS2_PLACEMENT_3D ( 'NONE', #29, #134, #107 ) ;
#68 = EDGE_LOOP ( 'NONE', ( #20 ) ) ;
#69 = MANIFOLD_SOLID_BREP ( 'Corps-Déplacer/Copier1[1]', #75 ) ;
#70 = CALENDAR_DATE ( 2021, 30, 11 ) ;
#71 = ORIENTED_EDGE ( 'NONE', *, *, #235, .T. ) ;
#72 = SHAPE_DEFINITION_REPRESENTATION ( #35, #233 ) ;
#73 = ORIENTED_EDGE ( 'NONE', *, *, #104, .F. ) ;
#74 = EDGE_LOOP ( 'NONE', ( #117 ) ) ;
#75 = CLOSED_SHELL ( 'NONE', ( #215, #82, #19, #63, #112, #133, #90, #8 ) ) ;
#76 = AXIS2_PLACEMENT_3D ( 'NONE', #263, #153, #214 ) ;
#77 = DATE_TIME_ROLE ( 'classification_date' ) ;
#78 = ADVANCED_FACE ( 'NONE', ( #46, #44 ), #281, .T. ) ;
#79 = FACE_BOUND ( 'NONE', #42, .T. ) ;
#80 = DIRECTION ( 'NONE',  ( -4.275831445896958607E-31, -1.000000000000000000, -1.224646799147353207E-16 ) ) ;
#81 = CARTESIAN_POINT ( 'NONE',  ( 8.728703347107829444E-16, -3.061616997868381785E-17, 0.2499999999999998890 ) ) ;
#82 = ADVANCED_FACE ( 'NONE', ( #120, #99 ), #247, .T. ) ;
#83 = VERTEX_POINT ( 'NONE', #50 ) ;
#84 = CARTESIAN_POINT ( 'NONE',  ( 0.0000000000000000000, 0.0000000000000000000, 0.0000000000000000000 ) ) ;
#85 = FACE_OUTER_BOUND ( 'NONE', #160, .T. ) ;
#86 = CALENDAR_DATE ( 2021, 30, 11 ) ;
#87 = PERSON_AND_ORGANIZATION_ROLE ( 'classification_officer' ) ;
#88 = EDGE_LOOP ( 'NONE', ( #71 ) ) ;
#89 = PRODUCT ( '200146', '200146', '', ( #224 ) ) ;
#90 = ADVANCED_FACE ( 'NONE', ( #188, #79 ), #196, .T. ) ;
#91 = CIRCLE ( 'NONE', #251, 0.7950000000000001510 ) ;
#92 = PERSON_AND_ORGANIZATION ( #170, #244 ) ;
#93 = CC_DESIGN_APPROVAL ( #16, ( #159 ) ) ;
#94 = DIRECTION ( 'NONE',  ( -3.491481338843133355E-15, 1.224646799147353207E-16, -1.000000000000000000 ) ) ;
#95 = DIRECTION ( 'NONE',  ( -3.491481338843133355E-15, 1.224646799147353207E-16, -1.000000000000000000 ) ) ;
#96 = ORIENTED_EDGE ( 'NONE', *, *, #254, .T. ) ;
#97 = CC_DESIGN_PERSON_AND_ORGANIZATION_ASSIGNMENT ( #11, #181, ( #159 ) ) ;
#98 = CLOSED_SHELL ( 'NONE', ( #299, #259, #78, #182 ) ) ;
#99 = FACE_OUTER_BOUND ( 'NONE', #203, .T. ) ;
#100 = AXIS2_PLACEMENT_3D ( 'NONE', #171, #258, #80 ) ;
#101 = APPROVAL_PERSON_ORGANIZATION ( #66, #293, #290 ) ;
#102 = DIRECTION ( 'NONE',  ( -3.491481338843133355E-15, 1.224646799147353207E-16, -1.000000000000000000 ) ) ;
#103 = CARTESIAN_POINT ( 'NONE',  ( -3.224671445063903687E-31, 1.131062486161781236E-32, -9.235826092464138581E-17 ) ) ;
#104 = EDGE_CURVE ( 'NONE', #52, #52, #288, .T. ) ;
#105 = DIRECTION ( 'NONE',  ( -3.491481338843133355E-15, 1.224646799147353207E-16, -1.000000000000000000 ) ) ;
#106 = CIRCLE ( 'NONE', #118, 0.7950000000000000400 ) ;
#107 = DIRECTION ( 'NONE',  ( 0.0000000000000000000, 1.000000000000000000, 0.0000000000000000000 ) ) ;
#108 = PLANE ( 'NONE',  #100 ) ;
#109 = APPROVAL_DATE_TIME ( #158, #16 ) ;
#110 = CONICAL_SURFACE ( 'NONE', #220, 1.499999999999996669, 0.1745329251994262587 ) ;
#111 = PERSON_AND_ORGANIZATION ( #170, #244 ) ;
#112 = ADVANCED_FACE ( 'NONE', ( #262, #234 ), #110, .T. ) ;
#113 = COORDINATED_UNIVERSAL_TIME_OFFSET ( 1, 0, .AHEAD. ) ;
#114 = EDGE_LOOP ( 'NONE', ( #250 ) ) ;
#115 = APPROVAL_DATE_TIME ( #13, #293 ) ;
#116 = EDGE_LOOP ( 'NONE', ( #186 ) ) ;
#117 = ORIENTED_EDGE ( 'NONE', *, *, #204, .F. ) ;
#118 = AXIS2_PLACEMENT_3D ( 'NONE', #132, #128, #1 ) ;
#119 = ORIENTED_EDGE ( 'NONE', *, *, #201, .T. ) ;
#120 = FACE_BOUND ( 'NONE', #114, .T. ) ;
#121 = COORDINATED_UNIVERSAL_TIME_OFFSET ( 1, 0, .AHEAD. ) ;
#122 = FACE_OUTER_BOUND ( 'NONE', #68, .T. ) ;
#123 = TOROIDAL_SURFACE ( 'NONE', #39, 2.795000000000000373, 2.000000000000000444 ) ;
#124 = CARTESIAN_POINT ( 'NONE',  ( 7.392594095401939205E-14, -2.592972958386005050E-15, 21.17323100988247120 ) ) ;
#125 = APPROVAL_PERSON_ORGANIZATION ( #256, #145, #17 ) ;
#126 = PLANE ( 'NONE',  #280 ) ;
#127 = CC_DESIGN_DATE_AND_TIME_ASSIGNMENT ( #253, #77, ( #131 ) ) ;
#128 = DIRECTION ( 'NONE',  ( -3.491481338843133355E-15, 1.224646799147353207E-16, -1.000000000000000000 ) ) ;
#129 = VERTEX_POINT ( 'NONE', #217 ) ;
#130 = CIRCLE ( 'NONE', #239, 0.8253844939755802246 ) ;
#131 = SECURITY_CLASSIFICATION ( '', '', #9 ) ;
#132 = CARTESIAN_POINT ( 'NONE',  ( 5.935518276033326704E-14, -2.081899558550500280E-15, 17.00000000000000000 ) ) ;
#133 = ADVANCED_FACE ( 'NONE', ( #2, #57 ), #31, .T. ) ;
#134 = DIRECTION ( 'NONE',  ( -3.491481338843133355E-15, 1.224646799147353207E-16, -1.000000000000000000 ) ) ;
#135 = PERSON_AND_ORGANIZATION_ROLE ( 'design_supplier' ) ;
#136 = CC_DESIGN_PERSON_AND_ORGANIZATION_ASSIGNMENT ( #111, #87, ( #131 ) ) ;
#137 = COORDINATED_UNIVERSAL_TIME_OFFSET ( 1, 0, .AHEAD. ) ;
#138 = EDGE_LOOP ( 'NONE', ( #43 ) ) ;
#139 = APPLICATION_CONTEXT ( 'configuration controlled 3d designs of mechanical parts and assemblies' ) ;
#140 = VERTEX_POINT ( 'NONE', #267 ) ;
#141 = ORIENTED_EDGE ( 'NONE', *, *, #30, .F. ) ;
#142 = CC_DESIGN_APPROVAL ( #145, ( #131 ) ) ;
#143 = CARTESIAN_POINT ( 'NONE',  ( 0.0000000000000000000, 0.0000000000000000000, 0.0000000000000000000 ) ) ;
#144 = CARTESIAN_POINT ( 'NONE',  ( 0.0000000000000000000, 0.0000000000000000000, 0.0000000000000000000 ) ) ;
#145 = APPROVAL ( #45, 'UNSPECIFIED' ) ;
#146 = CARTESIAN_POINT ( 'NONE',  ( 5.935518276033326704E-14, -2.168404344971008868E-15, 17.00000000000000000 ) ) ;
#147 = DATE_AND_TIME ( #70, #51 ) ;
#148 = DIRECTION ( 'NONE',  ( 0.0000000000000000000, 1.000000000000000000, 0.0000000000000000000 ) ) ;
#149 = AXIS2_PLACEMENT_3D ( 'NONE', #168, #187, #167 ) ;
#150 = APPLICATION_CONTEXT ( 'configuration controlled 3d designs of mechanical parts and assemblies' ) ;
#151 = DIRECTION ( 'NONE',  ( 4.286989303032249213E-31, 1.000000000000000000, 1.206680214229833745E-16 ) ) ;
#152 = DIRECTION ( 'NONE',  ( 0.0000000000000000000, -1.000000000000000000, 0.0000000000000000000 ) ) ;
#153 = DIRECTION ( 'NONE',  ( -3.491481338843133355E-15, 1.224646799147353207E-16, -1.000000000000000000 ) ) ;
#154 = DIRECTION ( 'NONE',  ( -3.491481338843133355E-15, 1.224646799147353207E-16, -1.000000000000000000 ) ) ;
#155 = CC_DESIGN_PERSON_AND_ORGANIZATION_ASSIGNMENT ( #294, #179, ( #89 ) ) ;
#156 = AXIS2_PLACEMENT_3D ( 'NONE', #241, #154, #173 ) ;
#157 = DIRECTION ( 'NONE',  ( -4.275831445896958607E-31, -1.000000000000000000, -1.224646799147353207E-16 ) ) ;
#158 = DATE_AND_TIME ( #34, #56 ) ;
#159 = PRODUCT_DEFINITION ( 'UNKNOWN', '', #225, #26 ) ;
#160 = EDGE_LOOP ( 'NONE', ( #119 ) ) ;
#161 = AXIS2_PLACEMENT_3D ( 'NONE', #257, #49, #148 ) ;
#162 = ORIENTED_EDGE ( 'NONE', *, *, #4, .T. ) ;
#163 = APPROVAL_DATE_TIME ( #147, #145 ) ;
#164 = ORIENTED_EDGE ( 'NONE', *, *, #104, .T. ) ;
#165 = DIRECTION ( 'NONE',  ( -3.491481338843133355E-15, 1.224646799147353207E-16, -1.000000000000000000 ) ) ;
#166 =( GEOMETRIC_REPRESENTATION_CONTEXT ( 3 ) GLOBAL_UNCERTAINTY_ASSIGNED_CONTEXT ( ( #191 ) ) GLOBAL_UNIT_ASSIGNED_CONTEXT ( ( #38, #245, #242 ) ) REPRESENTATION_CONTEXT ( 'NONE', 'WORKASPACE' ) );
#167 = DIRECTION ( 'NONE',  ( 0.0000000000000000000, 1.000000000000000000, 0.0000000000000000000 ) ) ;
#168 = CARTESIAN_POINT ( 'NONE',  ( 2.444036937190193349E-14, -8.572527594031473190E-16, 7.000000000000000000 ) ) ;
#169 = CARTESIAN_POINT ( 'NONE',  ( 2.444036937190193349E-14, 6.737670823608380989E-33, 7.000000000000000000 ) ) ;
#170 = PERSON ( 'UNSPECIFIED', 'UNSPECIFIED', 'UNSPECIFIED', ('UNSPECIFIED'), ('UNSPECIFIED'), ('UNSPECIFIED') ) ;
#171 = CARTESIAN_POINT ( 'NONE',  ( -1.612335722531951844E-31, 5.655312430808906178E-33, -4.617913046232069291E-17 ) ) ;
#172 = DIRECTION ( 'NONE',  ( 3.491481338843133355E-15, -1.224646799147353207E-16, 1.000000000000000000 ) ) ;
#173 = DIRECTION ( 'NONE',  ( 0.0000000000000000000, 1.000000000000000000, 0.0000000000000000000 ) ) ;
#174 = VERTEX_POINT ( 'NONE', #54 ) ;
#175 = AXIS2_PLACEMENT_3D ( 'NONE', #249, #94, #277 ) ;
#176 = DIRECTION ( 'NONE',  ( 1.000000000000000000, 0.0000000000000000000, 0.0000000000000000000 ) ) ;
#177 = CC_DESIGN_PERSON_AND_ORGANIZATION_ASSIGNMENT ( #291, #135, ( #225 ) ) ;
#178 = COORDINATED_UNIVERSAL_TIME_OFFSET ( 1, 0, .AHEAD. ) ;
#179 = PERSON_AND_ORGANIZATION_ROLE ( 'design_owner' ) ;
#180 = ORIENTED_EDGE ( 'NONE', *, *, #223, .F. ) ;
#181 = PERSON_AND_ORGANIZATION_ROLE ( 'creator' ) ;
#182 = ADVANCED_FACE ( 'NONE', ( #219 ), #240, .T. ) ;
#183 = APPROVAL_STATUS ( 'not_yet_approved' ) ;
#184 = AXIS2_PLACEMENT_3D ( 'NONE', #124, #212, #303 ) ;
#185 = EDGE_LOOP ( 'NONE', ( #180 ) ) ;
#186 = ORIENTED_EDGE ( 'NONE', *, *, #4, .F. ) ;
#187 = DIRECTION ( 'NONE',  ( -3.491481338843133355E-15, 1.224646799147353207E-16, -1.000000000000000000 ) ) ;
#188 = FACE_OUTER_BOUND ( 'NONE', #185, .T. ) ;
#189 = DIRECTION ( 'NONE',  ( 0.0000000000000000000, 1.000000000000000000, 0.0000000000000000000 ) ) ;
#190 = DIRECTION ( 'NONE',  ( 4.275831445896958607E-31, 1.000000000000000000, 1.224646799147353454E-16 ) ) ;
#191 = UNCERTAINTY_MEASURE_WITH_UNIT (LENGTH_MEASURE( 1.000000000000000082E-05 ), #38, 'distance_accuracy_value', 'NONE');
#192 = FACE_BOUND ( 'NONE', #269, .T. ) ;
#193 = CARTESIAN_POINT ( 'NONE',  ( 2.506627765991136237E-14, 0.7949999999999992628, 7.179267258583378108 ) ) ;
#194 = DIRECTION ( 'NONE',  ( -3.491481338843133355E-15, 1.224646799147353207E-16, -1.000000000000000000 ) ) ;
#195 = CARTESIAN_POINT ( 'NONE',  ( 0.0000000000000000000, 0.0000000000000000000, 0.0000000000000000000 ) ) ;
#196 = CONICAL_SURFACE ( 'NONE', #161, 1.200000000000001732, 0.7853981633974453924 ) ;
#197 = APPROVAL_PERSON_ORGANIZATION ( #92, #16, #221 ) ;
#198 = CALENDAR_DATE ( 2021, 30, 11 ) ;
#199 = VERTEX_POINT ( 'NONE', #10 ) ;
#200 = EDGE_LOOP ( 'NONE', ( #141 ) ) ;
#201 = EDGE_CURVE ( 'NONE', #129, #129, #47, .T. ) ;
#202 = PERSON_AND_ORGANIZATION ( #170, #244 ) ;
#203 = EDGE_LOOP ( 'NONE', ( #255 ) ) ;
#204 = EDGE_CURVE ( 'NONE', #3, #3, #91, .T. ) ;
#205 = FACE_OUTER_BOUND ( 'NONE', #74, .T. ) ;
#206 = AXIS2_PLACEMENT_3D ( 'NONE', #144, #48, #22 ) ;
#207 = PLANE ( 'NONE',  #55 ) ;
#208 = FACE_OUTER_BOUND ( 'NONE', #23, .T. ) ;
#209 = CARTESIAN_POINT ( 'NONE',  ( 1.745740669421566678E-13, 8.998558695971067645E-33, 50.00000000000000000 ) ) ;
#210 = CC_DESIGN_PERSON_AND_ORGANIZATION_ASSIGNMENT ( #202, #33, ( #225 ) ) ;
#211 = CIRCLE ( 'NONE', #156, 1.500000000000001554 ) ;
#212 = DIRECTION ( 'NONE',  ( -3.491481338843133355E-15, 1.224646799147353207E-16, -1.000000000000000000 ) ) ;
#213 = CARTESIAN_POINT ( 'NONE',  ( 2.444036937190193349E-14, 6.737670823608380989E-33, 7.000000000000000000 ) ) ;
#214 = DIRECTION ( 'NONE',  ( 0.0000000000000000000, 1.000000000000000000, 0.0000000000000000000 ) ) ;
#215 = ADVANCED_FACE ( 'NONE', ( #265 ), #126, .F. ) ;
#216 = AXIS2_PLACEMENT_3D ( 'NONE', #84, #32, #190 ) ;
#217 = CARTESIAN_POINT ( 'NONE',  ( 8.728703347107833388E-16, 0.8984999999999989662, 0.2500000000000000000 ) ) ;
#218 = DIRECTION ( 'NONE',  ( -4.286989303032249213E-31, -1.000000000000000000, -1.206680214229833745E-16 ) ) ;
#219 = FACE_OUTER_BOUND ( 'NONE', #200, .T. ) ;
#220 = AXIS2_PLACEMENT_3D ( 'NONE', #286, #53, #152 ) ;
#221 = APPROVAL_ROLE ( '' ) ;
#222 = ORIENTED_EDGE ( 'NONE', *, *, #278, .T. ) ;
#223 = EDGE_CURVE ( 'NONE', #174, #174, #211, .T. ) ;
#224 = MECHANICAL_CONTEXT ( 'NONE', #150, 'mechanical' ) ;
#225 = PRODUCT_DEFINITION_FORMATION_WITH_SPECIFIED_SOURCE ( 'ANY', '', #89, .NOT_KNOWN. ) ;
#226 = EDGE_CURVE ( 'NONE', #59, #59, #15, .T. ) ;
#227 = DIRECTION ( 'NONE',  ( 4.275831445896958607E-31, 1.000000000000000000, 1.224646799147353207E-16 ) ) ;
#228 = CARTESIAN_POINT ( 'NONE',  ( 6.056776150402963091E-14, -2.124431095542013992E-15, 17.34729635533384595 ) ) ;
#229 = AXIS2_PLACEMENT_3D ( 'NONE', #103, #282, #28 ) ;
#230 = EDGE_LOOP ( 'NONE', ( #164 ) ) ;
#231 = FACE_OUTER_BOUND ( 'NONE', #88, .T. ) ;
#232 = DIRECTION ( 'NONE',  ( 0.0000000000000000000, 1.000000000000000000, 0.0000000000000000000 ) ) ;
#233 = ADVANCED_BREP_SHAPE_REPRESENTATION ( '200146', ( #69, #270, #289 ), #166 ) ;
#234 = FACE_OUTER_BOUND ( 'NONE', #230, .T. ) ;
#235 = EDGE_CURVE ( 'NONE', #199, #199, #106, .T. ) ;
#236 = DIRECTION ( 'NONE',  ( 3.491481338843133355E-15, -1.224646799147353207E-16, 1.000000000000000000 ) ) ;
#237 = PRODUCT_RELATED_PRODUCT_CATEGORY ( 'detail', '', ( #89 ) ) ;
#238 = DIRECTION ( 'NONE',  ( 3.491481338843133355E-15, -1.224646799147353207E-16, 1.000000000000000000 ) ) ;
#239 = AXIS2_PLACEMENT_3D ( 'NONE', #228, #298, #232 ) ;
#240 = PLANE ( 'NONE',  #260 ) ;
#241 = CARTESIAN_POINT ( 'NONE',  ( 1.735266225405037467E-13, -6.086494591762345225E-15, 49.70000000000000284 ) ) ;
#242 =( NAMED_UNIT ( * ) SI_UNIT ( $, .STERADIAN. ) SOLID_ANGLE_UNIT ( ) );
#243 = AXIS2_PLACEMENT_3D ( 'NONE', #5, #194, #151 ) ;
#244 = ORGANIZATION ( 'UNSPECIFIED', 'UNSPECIFIED', '' ) ;
#245 =( NAMED_UNIT ( * ) PLANE_ANGLE_UNIT ( ) SI_UNIT ( $, .RADIAN. ) );
#246 = APPLICATION_PROTOCOL_DEFINITION ( 'international standard', 'config_control_design', 1994, #150 ) ;
#247 = CONICAL_SURFACE ( 'NONE', #149, 0.8984999999999998543, 0.5235987755982994818 ) ;
#248 = EDGE_LOOP ( 'NONE', ( #37 ) ) ;
#249 = CARTESIAN_POINT ( 'NONE',  ( 2.444036937190193349E-14, -8.572527594031473190E-16, 7.000000000000000000 ) ) ;
#250 = ORIENTED_EDGE ( 'NONE', *, *, #204, .T. ) ;
#251 = AXIS2_PLACEMENT_3D ( 'NONE', #27, #105, #189 ) ;
#252 = LOCAL_TIME ( 9, 32, 38.00000000000000000, #178 ) ;
#253 = DATE_AND_TIME ( #268, #252 ) ;
#254 = EDGE_CURVE ( 'NONE', #140, #140, #275, .T. ) ;
#255 = ORIENTED_EDGE ( 'NONE', *, *, #278, .F. ) ;
#256 = PERSON_AND_ORGANIZATION ( #170, #244 ) ;
#257 = CARTESIAN_POINT ( 'NONE',  ( 1.745740669421566678E-13, -6.123233995736766085E-15, 50.00000000000000000 ) ) ;
#258 = DIRECTION ( 'NONE',  ( 3.491481338843133355E-15, -1.224646799147353207E-16, 1.000000000000000000 ) ) ;
#259 = ADVANCED_FACE ( 'NONE', ( #192, #85 ), #21, .T. ) ;
#260 = AXIS2_PLACEMENT_3D ( 'NONE', #169, #236, #157 ) ;
#261 = VERTEX_POINT ( 'NONE', #285 ) ;
#262 = FACE_BOUND ( 'NONE', #116, .T. ) ;
#263 = CARTESIAN_POINT ( 'NONE',  ( 1.745740669421566678E-13, -6.123233995736766085E-15, 50.00000000000000000 ) ) ;
#264 = LOCAL_TIME ( 9, 32, 38.00000000000000000, #113 ) ;
#265 = FACE_OUTER_BOUND ( 'NONE', #272, .T. ) ;
#266 = CC_DESIGN_DATE_AND_TIME_ASSIGNMENT ( #295, #271, ( #159 ) ) ;
#267 = CARTESIAN_POINT ( 'NONE',  ( 1.745740669421566678E-13, 1.199999999999995515, 50.00000000000000000 ) ) ;
#268 = CALENDAR_DATE ( 2021, 30, 11 ) ;
#269 = EDGE_LOOP ( 'NONE', ( #12 ) ) ;
#270 = MANIFOLD_SOLID_BREP ( 'Corps-Déplacer/Copier1[2]', #98 ) ;
#271 = DATE_TIME_ROLE ( 'creation_date' ) ;
#272 = EDGE_LOOP ( 'NONE', ( #222 ) ) ;
#273 = COORDINATED_UNIVERSAL_TIME_OFFSET ( 1, 0, .AHEAD. ) ;
#274 = EDGE_LOOP ( 'NONE', ( #73 ) ) ;
#275 = CIRCLE ( 'NONE', #76, 1.200000000000001732 ) ;
#276 = EDGE_LOOP ( 'NONE', ( #162 ) ) ;
#277 = DIRECTION ( 'NONE',  ( 0.0000000000000000000, 1.000000000000000000, 0.0000000000000000000 ) ) ;
#278 = EDGE_CURVE ( 'NONE', #58, #58, #284, .T. ) ;
#279 = DIRECTION ( 'NONE',  ( 4.275831445896958607E-31, 1.000000000000000000, 1.224646799147353207E-16 ) ) ;
#280 = AXIS2_PLACEMENT_3D ( 'NONE', #213, #172, #283 ) ;
#281 = CYLINDRICAL_SURFACE ( 'NONE', #206, 0.8984999999999994102 ) ;
#282 = DIRECTION ( 'NONE',  ( -3.491481338843133355E-15, 1.224646799147353207E-16, -1.000000000000000000 ) ) ;
#283 = DIRECTION ( 'NONE',  ( -4.275831445896958607E-31, -1.000000000000000000, -1.224646799147353207E-16 ) ) ;
#284 = CIRCLE ( 'NONE', #67, 0.8984999999999998543 ) ;
#285 = CARTESIAN_POINT ( 'NONE',  ( 2.444036937190193349E-14, 0.8984999999999989662, 7.000000000000000000 ) ) ;
#286 = CARTESIAN_POINT ( 'NONE',  ( 7.392594095401939205E-14, -2.592972958386005050E-15, 21.17323100988247120 ) ) ;
#287 = CARTESIAN_POINT ( 'NONE',  ( 7.392594095401939205E-14, 1.499999999999994005, 21.17323100988247120 ) ) ;
#288 = CIRCLE ( 'NONE', #184, 1.499999999999996669 ) ;
#289 = AXIS2_PLACEMENT_3D ( 'NONE', #195, #36, #176 ) ;
#290 = APPROVAL_ROLE ( '' ) ;
#291 = PERSON_AND_ORGANIZATION ( #170, #244 ) ;
#292 = ORIENTED_EDGE ( 'NONE', *, *, #30, .T. ) ;
#293 = APPROVAL ( #64, 'UNSPECIFIED' ) ;
#294 = PERSON_AND_ORGANIZATION ( #170, #244 ) ;
#295 = DATE_AND_TIME ( #198, #264 ) ;
#296 = CARTESIAN_POINT ( 'NONE',  ( 0.0000000000000000000, 0.7541624327025947538, 0.0000000000000000000 ) ) ;
#297 = CYLINDRICAL_SURFACE ( 'NONE', #14, 0.7950000000000001510 ) ;
#298 = DIRECTION ( 'NONE',  ( -3.491481338843133355E-15, 1.224646799147353207E-16, -1.000000000000000000 ) ) ;
#299 = ADVANCED_FACE ( 'NONE', ( #6 ), #108, .F. ) ;
#300 = FACE_OUTER_BOUND ( 'NONE', #276, .T. ) ;
#301 = CIRCLE ( 'NONE', #175, 0.8984999999999998543 ) ;
#302 = CC_DESIGN_SECURITY_CLASSIFICATION ( #131, ( #225 ) ) ;
#303 = DIRECTION ( 'NONE',  ( 0.0000000000000000000, 1.000000000000000000, 0.0000000000000000000 ) ) ;
ENDSEC;
END-ISO-10303-21;
