ISO-10303-21;
HEADER;
FILE_DESCRIPTION (( 'STEP AP203' ),
    '1' );
FILE_NAME ('200145.step',
    '2021-11-30T08:32:37',
    ( '' ),
    ( '' ),
    'SwSTEP 2.0',
    'SolidWorks 2019',
    '' );
FILE_SCHEMA (( 'CONFIG_CONTROL_DESIGN' ));
ENDSEC;

DATA;
#1 = FACE_OUTER_BOUND ( 'NONE', #139, .T. ) ;
#2 = DIRECTION ( 'NONE',  ( -3.491481338843133355E-15, 1.224646799147353207E-16, -1.000000000000000000 ) ) ;
#3 = DIRECTION ( 'NONE',  ( 0.0000000000000000000, 1.000000000000000000, 0.0000000000000000000 ) ) ;
#4 = DIRECTION ( 'NONE',  ( 3.491481338843133355E-15, -1.224646799147353207E-16, 1.000000000000000000 ) ) ;
#5 = FACE_BOUND ( 'NONE', #267, .T. ) ;
#6 = CARTESIAN_POINT ( 'NONE',  ( 2.886013015238223984E-14, 0.8299999999999999600, 8.265869798961821502 ) ) ;
#7 = EDGE_LOOP ( 'NONE', ( #113 ) ) ;
#8 = DATE_TIME_ROLE ( 'creation_date' ) ;
#9 = ADVANCED_FACE ( 'NONE', ( #17, #115 ), #210, .T. ) ;
#10 = AXIS2_PLACEMENT_3D ( 'NONE', #149, #241, #80 ) ;
#11 = PERSON_AND_ORGANIZATION ( #72, #281 ) ;
#12 = EDGE_LOOP ( 'NONE', ( #141 ) ) ;
#13 = ORIENTED_EDGE ( 'NONE', *, *, #177, .F. ) ;
#14 = DIRECTION ( 'NONE',  ( -3.916481839119955341E-31, -1.000000000000000000, -1.102391634453996609E-16 ) ) ;
#15 = PERSON_AND_ORGANIZATION ( #72, #281 ) ;
#16 = CC_DESIGN_PERSON_AND_ORGANIZATION_ASSIGNMENT ( #11, #295, ( #76 ) ) ;
#17 = FACE_BOUND ( 'NONE', #7, .T. ) ;
#18 = DIRECTION ( 'NONE',  ( 0.0000000000000000000, 1.000000000000000000, 0.0000000000000000000 ) ) ;
#19 = CIRCLE ( 'NONE', #218, 1.200000000000001732 ) ;
#20 = DESIGN_CONTEXT ( 'detailed design', #137, 'design' ) ;
#21 = DIRECTION ( 'NONE',  ( 0.0000000000000000000, 1.000000000000000000, 0.0000000000000000000 ) ) ;
#22 = VERTEX_POINT ( 'NONE', #226 ) ;
#23 = CARTESIAN_POINT ( 'NONE',  ( 1.745740669421566678E-13, -6.123233995736766085E-15, 50.00000000000000000 ) ) ;
#24 = APPROVAL_PERSON_ORGANIZATION ( #106, #187, #107 ) ;
#25 = FACE_OUTER_BOUND ( 'NONE', #12, .T. ) ;
#26 = FACE_OUTER_BOUND ( 'NONE', #298, .T. ) ;
#27 = VERTEX_POINT ( 'NONE', #83 ) ;
#28 = LOCAL_TIME ( 9, 32, 37.00000000000000000, #59 ) ;
#29 = CARTESIAN_POINT ( 'NONE',  ( 0.0000000000000000000, 0.0000000000000000000, 0.0000000000000000000 ) ) ;
#30 = CC_DESIGN_PERSON_AND_ORGANIZATION_ASSIGNMENT ( #197, #268, ( #192 ) ) ;
#31 = CC_DESIGN_DATE_AND_TIME_ASSIGNMENT ( #156, #8, ( #129 ) ) ;
#32 = CARTESIAN_POINT ( 'NONE',  ( 2.793185071074506684E-14, 0.9834999999999989306, 8.000000000000000000 ) ) ;
#33 = CARTESIAN_POINT ( 'NONE',  ( 1.745740669421566678E-13, 1.199999999999995515, 50.00000000000000000 ) ) ;
#34 = ORIENTED_EDGE ( 'NONE', *, *, #177, .T. ) ;
#35 = ORIENTED_EDGE ( 'NONE', *, *, #120, .F. ) ;
#36 = DATE_TIME_ROLE ( 'classification_date' ) ;
#37 = DIRECTION ( 'NONE',  ( -3.491481338843133355E-15, 1.224646799147353207E-16, -1.000000000000000000 ) ) ;
#38 = COORDINATED_UNIVERSAL_TIME_OFFSET ( 1, 0, .AHEAD. ) ;
#39 = EDGE_LOOP ( 'NONE', ( #13 ) ) ;
#40 = AXIS2_PLACEMENT_3D ( 'NONE', #163, #71, #303 ) ;
#41 = ADVANCED_FACE ( 'NONE', ( #114, #66 ), #117, .T. ) ;
#42 = ORIENTED_EDGE ( 'NONE', *, *, #67, .F. ) ;
#43 = APPLICATION_CONTEXT ( 'configuration controlled 3d designs of mechanical parts and assemblies' ) ;
#44 = CALENDAR_DATE ( 2021, 30, 11 ) ;
#45 = CARTESIAN_POINT ( 'NONE',  ( 2.793185071074506684E-14, -9.797174393178825657E-16, 8.000000000000000000 ) ) ;
#46 = DIRECTION ( 'NONE',  ( -3.491481338843133355E-15, 1.224646799147353207E-16, -1.000000000000000000 ) ) ;
#47 = AXIS2_PLACEMENT_3D ( 'NONE', #123, #2, #145 ) ;
#48 = LOCAL_TIME ( 9, 32, 37.00000000000000000, #125 ) ;
#49 = PLANE ( 'NONE',  #10 ) ;
#50 = CARTESIAN_POINT ( 'NONE',  ( 0.0000000000000000000, 0.0000000000000000000, 0.0000000000000000000 ) ) ;
#51 = DIRECTION ( 'NONE',  ( 3.491481338843133355E-15, -1.224646799147353207E-16, 1.000000000000000000 ) ) ;
#52 = CIRCLE ( 'NONE', #96, 0.8299999999999996270 ) ;
#53 = CC_DESIGN_DATE_AND_TIME_ASSIGNMENT ( #61, #36, ( #263 ) ) ;
#54 = FACE_OUTER_BOUND ( 'NONE', #247, .T. ) ;
#55 = VERTEX_POINT ( 'NONE', #269 ) ;
#56 = CARTESIAN_POINT ( 'NONE',  ( -1.892735826383162232E-31, 0.8391624327025947183, -5.421010862427523403E-17 ) ) ;
#57 = EDGE_CURVE ( 'NONE', #22, #22, #81, .T. ) ;
#58 = APPROVAL_DATE_TIME ( #155, #187 ) ;
#59 = COORDINATED_UNIVERSAL_TIME_OFFSET ( 1, 0, .AHEAD. ) ;
#60 = AXIS2_PLACEMENT_3D ( 'NONE', #261, #237, #262 ) ;
#61 = DATE_AND_TIME ( #44, #112 ) ;
#62 = CC_DESIGN_SECURITY_CLASSIFICATION ( #263, ( #76 ) ) ;
#63 = CARTESIAN_POINT ( 'NONE',  ( 8.728703347107829444E-16, -3.061616997868381785E-17, 0.2499999999999998890 ) ) ;
#64 = ORIENTED_EDGE ( 'NONE', *, *, #94, .T. ) ;
#65 = SHAPE_DEFINITION_REPRESENTATION ( #225, #142 ) ;
#66 = FACE_OUTER_BOUND ( 'NONE', #232, .T. ) ;
#67 = EDGE_CURVE ( 'NONE', #176, #176, #75, .T. ) ;
#68 = DIRECTION ( 'NONE',  ( 0.0000000000000000000, 1.000000000000000000, 0.0000000000000000000 ) ) ;
#69 = CIRCLE ( 'NONE', #40, 0.8391624327025947183 ) ;
#70 = CONICAL_SURFACE ( 'NONE', #131, 1.200000000000001732, 0.7853981633974453924 ) ;
#71 = DIRECTION ( 'NONE',  ( -3.491481338843133355E-15, 1.224646799147353207E-16, -1.000000000000000000 ) ) ;
#72 = PERSON ( 'UNSPECIFIED', 'UNSPECIFIED', 'UNSPECIFIED', ('UNSPECIFIED'), ('UNSPECIFIED'), ('UNSPECIFIED') ) ;
#73 = FACE_OUTER_BOUND ( 'NONE', #175, .T. ) ;
#74 = DIRECTION ( 'NONE',  ( 0.0000000000000000000, 1.000000000000000000, 0.0000000000000000000 ) ) ;
#75 = CIRCLE ( 'NONE', #248, 0.8300000000000009592 ) ;
#76 = PRODUCT_DEFINITION_FORMATION_WITH_SPECIFIED_SOURCE ( 'ANY', '', #192, .NOT_KNOWN. ) ;
#77 = DIRECTION ( 'NONE',  ( -3.491481338843133355E-15, 1.224646799147353207E-16, -1.000000000000000000 ) ) ;
#78 = FACE_OUTER_BOUND ( 'NONE', #206, .T. ) ;
#79 = APPROVAL ( #265, 'UNSPECIFIED' ) ;
#80 = DIRECTION ( 'NONE',  ( -4.275831445896958607E-31, -1.000000000000000000, -1.224646799147353207E-16 ) ) ;
#81 = CIRCLE ( 'NONE', #195, 1.500000000000001554 ) ;
#82 = CALENDAR_DATE ( 2021, 30, 11 ) ;
#83 = CARTESIAN_POINT ( 'NONE',  ( 6.284666409917638777E-14, 0.8299999999999974065, 17.99999999999999645 ) ) ;
#84 = EDGE_CURVE ( 'NONE', #178, #178, #180, .T. ) ;
#85 = MANIFOLD_SOLID_BREP ( 'Corps-Déplacer/Copier1[2]', #144 ) ;
#86 = EDGE_LOOP ( 'NONE', ( #300 ) ) ;
#87 = AXIS2_PLACEMENT_3D ( 'NONE', #63, #159, #91 ) ;
#88 = CARTESIAN_POINT ( 'NONE',  ( 8.728703347107833388E-16, 0.9834999999999989306, 0.2500000000000000000 ) ) ;
#89 = PERSON_AND_ORGANIZATION ( #72, #281 ) ;
#90 =( GEOMETRIC_REPRESENTATION_CONTEXT ( 3 ) GLOBAL_UNCERTAINTY_ASSIGNED_CONTEXT ( ( #213 ) ) GLOBAL_UNIT_ASSIGNED_CONTEXT ( ( #245, #173, #196 ) ) REPRESENTATION_CONTEXT ( 'NONE', 'WORKASPACE' ) );
#91 = DIRECTION ( 'NONE',  ( 3.916481839119955341E-31, 1.000000000000000000, 1.102391634453996609E-16 ) ) ;
#92 = PERSON_AND_ORGANIZATION_ROLE ( 'design_supplier' ) ;
#93 = CARTESIAN_POINT ( 'NONE',  ( 8.728703347107829444E-16, -3.061616997868381785E-17, 0.2499999999999998890 ) ) ;
#94 = EDGE_CURVE ( 'NONE', #154, #154, #69, .T. ) ;
#95 = DIRECTION ( 'NONE',  ( -3.491481338843133355E-15, 1.224646799147353207E-16, -1.000000000000000000 ) ) ;
#96 = AXIS2_PLACEMENT_3D ( 'NONE', #150, #102, #214 ) ;
#97 = EDGE_LOOP ( 'NONE', ( #135 ) ) ;
#98 = EDGE_LOOP ( 'NONE', ( #165 ) ) ;
#99 = DIRECTION ( 'NONE',  ( -3.491481338843133355E-15, 1.224646799147353207E-16, -1.000000000000000000 ) ) ;
#100 = DIRECTION ( 'NONE',  ( -4.275831445896958607E-31, -1.000000000000000000, -1.224646799147353207E-16 ) ) ;
#101 = CC_DESIGN_APPROVAL ( #187, ( #129 ) ) ;
#102 = DIRECTION ( 'NONE',  ( -3.491481338843133355E-15, 1.224646799147353207E-16, -1.000000000000000000 ) ) ;
#103 = ADVANCED_FACE ( 'NONE', ( #203, #296 ), #122, .T. ) ;
#104 = DIRECTION ( 'NONE',  ( 3.491481338843133355E-15, -1.224646799147353207E-16, 1.000000000000000000 ) ) ;
#105 = CIRCLE ( 'NONE', #47, 0.8603844939755806998 ) ;
#106 = PERSON_AND_ORGANIZATION ( #72, #281 ) ;
#107 = APPROVAL_ROLE ( '' ) ;
#108 = EDGE_CURVE ( 'NONE', #126, #126, #116, .T. ) ;
#109 = APPROVAL_DATE_TIME ( #201, #79 ) ;
#110 = EDGE_LOOP ( 'NONE', ( #212 ) ) ;
#111 = ADVANCED_FACE ( 'NONE', ( #73 ), #191, .T. ) ;
#112 = LOCAL_TIME ( 9, 32, 37.00000000000000000, #38 ) ;
#113 = ORIENTED_EDGE ( 'NONE', *, *, #94, .F. ) ;
#114 = FACE_OUTER_BOUND ( 'NONE', #97, .T. ) ;
#115 = FACE_OUTER_BOUND ( 'NONE', #160, .T. ) ;
#116 = CIRCLE ( 'NONE', #87, 0.9834999999999989306 ) ;
#117 = CYLINDRICAL_SURFACE ( 'NONE', #172, 0.8300000000000001821 ) ;
#118 = DIRECTION ( 'NONE',  ( -3.491481338843133355E-15, 1.224646799147353207E-16, -1.000000000000000000 ) ) ;
#119 = DIRECTION ( 'NONE',  ( -3.491481338843133355E-15, 1.224646799147353207E-16, -1.000000000000000000 ) ) ;
#120 = EDGE_CURVE ( 'NONE', #27, #27, #52, .T. ) ;
#121 = DIRECTION ( 'NONE',  ( 0.0000000000000000000, -1.000000000000000000, 0.0000000000000000000 ) ) ;
#122 = CONICAL_SURFACE ( 'NONE', #216, 0.9835000000000000409, 0.5235987755982995928 ) ;
#123 = CARTESIAN_POINT ( 'NONE',  ( 6.405924284287275164E-14, -2.246895775456749140E-15, 18.34729635533384595 ) ) ;
#124 = CARTESIAN_POINT ( 'NONE',  ( 6.284666409917640040E-14, -2.168404344971008868E-15, 18.00000000000000000 ) ) ;
#125 = COORDINATED_UNIVERSAL_TIME_OFFSET ( 1, 0, .AHEAD. ) ;
#126 = VERTEX_POINT ( 'NONE', #88 ) ;
#127 = MECHANICAL_CONTEXT ( 'NONE', #43, 'mechanical' ) ;
#128 = CARTESIAN_POINT ( 'NONE',  ( 2.793185071074506684E-14, 0.9834999999999989306, 8.000000000000000000 ) ) ;
#129 = PRODUCT_DEFINITION ( 'UNKNOWN', '', #76, #20 ) ;
#130 = ORIENTED_EDGE ( 'NONE', *, *, #84, .T. ) ;
#131 = AXIS2_PLACEMENT_3D ( 'NONE', #279, #46, #260 ) ;
#132 = PERSON_AND_ORGANIZATION ( #72, #281 ) ;
#133 = EDGE_LOOP ( 'NONE', ( #35 ) ) ;
#134 = APPROVAL_ROLE ( '' ) ;
#135 = ORIENTED_EDGE ( 'NONE', *, *, #120, .T. ) ;
#136 = DIRECTION ( 'NONE',  ( -3.491481338843133355E-15, 1.224646799147353207E-16, -1.000000000000000000 ) ) ;
#137 = APPLICATION_CONTEXT ( 'configuration controlled 3d designs of mechanical parts and assemblies' ) ;
#138 = TOROIDAL_SURFACE ( 'NONE', #288, 2.830000000000000071, 2.000000000000000444 ) ;
#139 = EDGE_LOOP ( 'NONE', ( #227 ) ) ;
#140 = CALENDAR_DATE ( 2021, 30, 11 ) ;
#141 = ORIENTED_EDGE ( 'NONE', *, *, #220, .F. ) ;
#142 = ADVANCED_BREP_SHAPE_REPRESENTATION ( '200145', ( #282, #85, #162 ), #90 ) ;
#143 = ORIENTED_EDGE ( 'NONE', *, *, #57, .T. ) ;
#144 = CLOSED_SHELL ( 'NONE', ( #270, #9, #229, #111 ) ) ;
#145 = DIRECTION ( 'NONE',  ( 0.0000000000000000000, 1.000000000000000000, 0.0000000000000000000 ) ) ;
#146 = DIRECTION ( 'NONE',  ( -3.491481338843133355E-15, 1.224646799147353207E-16, -1.000000000000000000 ) ) ;
#147 = ADVANCED_FACE ( 'NONE', ( #167, #190 ), #287, .T. ) ;
#148 = PRODUCT_RELATED_PRODUCT_CATEGORY ( 'detail', '', ( #192 ) ) ;
#149 = CARTESIAN_POINT ( 'NONE',  ( -2.740426472174153797E-31, 9.612122138847646555E-33, -7.848893367083455569E-17 ) ) ;
#150 = CARTESIAN_POINT ( 'NONE',  ( 6.284666409917638777E-14, -2.204364238465235033E-15, 17.99999999999999645 ) ) ;
#151 = AXIS2_PLACEMENT_3D ( 'NONE', #189, #280, #170 ) ;
#152 = FACE_OUTER_BOUND ( 'NONE', #110, .T. ) ;
#153 = DIRECTION ( 'NONE',  ( 1.000000000000000000, 0.0000000000000000000, 0.0000000000000000000 ) ) ;
#154 = VERTEX_POINT ( 'NONE', #56 ) ;
#155 = DATE_AND_TIME ( #82, #205 ) ;
#156 = DATE_AND_TIME ( #179, #28 ) ;
#157 = AXIS2_PLACEMENT_3D ( 'NONE', #166, #51, #121 ) ;
#158 = DATE_AND_TIME ( #140, #181 ) ;
#159 = DIRECTION ( 'NONE',  ( -3.491481338843133355E-15, 1.224646799147353207E-16, -1.000000000000000000 ) ) ;
#160 = EDGE_LOOP ( 'NONE', ( #209 ) ) ;
#161 = CARTESIAN_POINT ( 'NONE',  ( 2.793185071074506684E-14, -9.797174393178825657E-16, 8.000000000000000000 ) ) ;
#162 = AXIS2_PLACEMENT_3D ( 'NONE', #29, #294, #153 ) ;
#163 = CARTESIAN_POINT ( 'NONE',  ( -5.480852944348307594E-31, 1.922424427769529311E-32, -1.569778673416691114E-16 ) ) ;
#164 = CC_DESIGN_PERSON_AND_ORGANIZATION_ASSIGNMENT ( #15, #92, ( #76 ) ) ;
#165 = ORIENTED_EDGE ( 'NONE', *, *, #84, .F. ) ;
#166 = CARTESIAN_POINT ( 'NONE',  ( 7.672438118044444771E-14, -2.691129028354637889E-15, 21.97473614619584126 ) ) ;
#167 = FACE_BOUND ( 'NONE', #186, .T. ) ;
#168 = ADVANCED_FACE ( 'NONE', ( #25 ), #215, .F. ) ;
#169 = FACE_OUTER_BOUND ( 'NONE', #250, .T. ) ;
#170 = DIRECTION ( 'NONE',  ( 4.275831445896958607E-31, 1.000000000000000000, 1.224646799147353454E-16 ) ) ;
#171 = CYLINDRICAL_SURFACE ( 'NONE', #151, 1.499999999999999112 ) ;
#172 = AXIS2_PLACEMENT_3D ( 'NONE', #274, #276, #208 ) ;
#173 =( NAMED_UNIT ( * ) PLANE_ANGLE_UNIT ( ) SI_UNIT ( $, .RADIAN. ) );
#174 = CALENDAR_DATE ( 2021, 30, 11 ) ;
#175 = EDGE_LOOP ( 'NONE', ( #275 ) ) ;
#176 = VERTEX_POINT ( 'NONE', #6 ) ;
#177 = EDGE_CURVE ( 'NONE', #291, #291, #301, .T. ) ;
#178 = VERTEX_POINT ( 'NONE', #128 ) ;
#179 = CALENDAR_DATE ( 2021, 30, 11 ) ;
#180 = CIRCLE ( 'NONE', #239, 0.9835000000000000409 ) ;
#181 = LOCAL_TIME ( 9, 32, 37.00000000000000000, #182 ) ;
#182 = COORDINATED_UNIVERSAL_TIME_OFFSET ( 1, 0, .AHEAD. ) ;
#183 = DIRECTION ( 'NONE',  ( -3.491481338843133355E-15, 1.224646799147353207E-16, -1.000000000000000000 ) ) ;
#184 = ORIENTED_EDGE ( 'NONE', *, *, #198, .F. ) ;
#185 = SECURITY_CLASSIFICATION_LEVEL ( 'unclassified' ) ;
#186 = EDGE_LOOP ( 'NONE', ( #184 ) ) ;
#187 = APPROVAL ( #194, 'UNSPECIFIED' ) ;
#188 = CC_DESIGN_APPROVAL ( #302, ( #263 ) ) ;
#189 = CARTESIAN_POINT ( 'NONE',  ( 0.0000000000000000000, 0.0000000000000000000, 0.0000000000000000000 ) ) ;
#190 = FACE_OUTER_BOUND ( 'NONE', #253, .T. ) ;
#191 = PLANE ( 'NONE',  #254 ) ;
#192 = PRODUCT ( '200145', '200145', '', ( #127 ) ) ;
#193 = FACE_OUTER_BOUND ( 'NONE', #228, .T. ) ;
#194 = APPROVAL_STATUS ( 'not_yet_approved' ) ;
#195 = AXIS2_PLACEMENT_3D ( 'NONE', #272, #95, #68 ) ;
#196 =( NAMED_UNIT ( * ) SI_UNIT ( $, .STERADIAN. ) SOLID_ANGLE_UNIT ( ) );
#197 = PERSON_AND_ORGANIZATION ( #72, #281 ) ;
#198 = EDGE_CURVE ( 'NONE', #55, #55, #105, .T. ) ;
#199 = CC_DESIGN_PERSON_AND_ORGANIZATION_ASSIGNMENT ( #252, #202, ( #263 ) ) ;
#200 = COORDINATED_UNIVERSAL_TIME_OFFSET ( 1, 0, .AHEAD. ) ;
#201 = DATE_AND_TIME ( #174, #48 ) ;
#202 = PERSON_AND_ORGANIZATION_ROLE ( 'classification_officer' ) ;
#203 = FACE_BOUND ( 'NONE', #86, .T. ) ;
#204 = AXIS2_PLACEMENT_3D ( 'NONE', #93, #257, #14 ) ;
#205 = LOCAL_TIME ( 9, 32, 37.00000000000000000, #200 ) ;
#206 = EDGE_LOOP ( 'NONE', ( #143 ) ) ;
#207 = ADVANCED_FACE ( 'NONE', ( #193 ), #236, .F. ) ;
#208 = DIRECTION ( 'NONE',  ( 4.275831445896958607E-31, 1.000000000000000000, 1.224646799147353454E-16 ) ) ;
#209 = ORIENTED_EDGE ( 'NONE', *, *, #108, .T. ) ;
#210 = CONICAL_SURFACE ( 'NONE', #204, 0.9834999999999989306, 0.5235987755982919323 ) ;
#211 = APPROVAL_PERSON_ORGANIZATION ( #89, #302, #134 ) ;
#212 = ORIENTED_EDGE ( 'NONE', *, *, #57, .F. ) ;
#213 = UNCERTAINTY_MEASURE_WITH_UNIT (LENGTH_MEASURE( 1.000000000000000082E-05 ), #245, 'distance_accuracy_value', 'NONE');
#214 = DIRECTION ( 'NONE',  ( 0.0000000000000000000, 1.000000000000000000, 0.0000000000000000000 ) ) ;
#215 = PLANE ( 'NONE',  #60 ) ;
#216 = AXIS2_PLACEMENT_3D ( 'NONE', #45, #136, #18 ) ;
#217 = DIRECTION ( 'NONE',  ( 4.275831445896958607E-31, 1.000000000000000000, 1.224646799147353207E-16 ) ) ;
#218 = AXIS2_PLACEMENT_3D ( 'NONE', #23, #99, #21 ) ;
#219 = CARTESIAN_POINT ( 'NONE',  ( 2.793185071074506684E-14, 7.375068731239668283E-33, 8.000000000000000000 ) ) ;
#220 = EDGE_CURVE ( 'NONE', #223, #223, #19, .T. ) ;
#221 = DIRECTION ( 'NONE',  ( 4.275831445896958607E-31, 1.000000000000000000, 1.224646799147353207E-16 ) ) ;
#222 = APPROVAL_ROLE ( '' ) ;
#223 = VERTEX_POINT ( 'NONE', #33 ) ;
#224 = PERSON_AND_ORGANIZATION ( #72, #281 ) ;
#225 = PRODUCT_DEFINITION_SHAPE ( 'NONE', 'NONE',  #129 ) ;
#226 = CARTESIAN_POINT ( 'NONE',  ( 1.735266225405037467E-13, 1.499999999999995559, 49.70000000000000284 ) ) ;
#227 = ORIENTED_EDGE ( 'NONE', *, *, #246, .T. ) ;
#228 = EDGE_LOOP ( 'NONE', ( #130 ) ) ;
#229 = ADVANCED_FACE ( 'NONE', ( #169, #1 ), #286, .T. ) ;
#230 = CC_DESIGN_PERSON_AND_ORGANIZATION_ASSIGNMENT ( #224, #266, ( #129 ) ) ;
#231 = ORIENTED_EDGE ( 'NONE', *, *, #220, .T. ) ;
#232 = EDGE_LOOP ( 'NONE', ( #42 ) ) ;
#233 = CARTESIAN_POINT ( 'NONE',  ( 2.886013015238223984E-14, -1.012277099146736966E-15, 8.265869798961821502 ) ) ;
#234 = AXIS2_PLACEMENT_3D ( 'NONE', #240, #118, #3 ) ;
#235 = DIRECTION ( 'NONE',  ( -4.275831445896958607E-31, -1.000000000000000000, -1.224646799147353207E-16 ) ) ;
#236 = PLANE ( 'NONE',  #255 ) ;
#237 = DIRECTION ( 'NONE',  ( -3.491481338843133355E-15, 1.224646799147353207E-16, -1.000000000000000000 ) ) ;
#238 = ADVANCED_FACE ( 'NONE', ( #285, #78 ), #171, .T. ) ;
#239 = AXIS2_PLACEMENT_3D ( 'NONE', #161, #37, #278 ) ;
#240 = CARTESIAN_POINT ( 'NONE',  ( 7.672438118044444771E-14, -2.691129028354637889E-15, 21.97473614619584126 ) ) ;
#241 = DIRECTION ( 'NONE',  ( 3.491481338843133355E-15, -1.224646799147353207E-16, 1.000000000000000000 ) ) ;
#242 = APPLICATION_PROTOCOL_DEFINITION ( 'international standard', 'config_control_design', 1994, #137 ) ;
#243 = CC_DESIGN_APPROVAL ( #79, ( #76 ) ) ;
#244 = CARTESIAN_POINT ( 'NONE',  ( 7.672438118044444771E-14, 1.499999999999994005, 21.97473614619584126 ) ) ;
#245 =( LENGTH_UNIT ( ) NAMED_UNIT ( * ) SI_UNIT ( .MILLI., .METRE. ) );
#246 = EDGE_CURVE ( 'NONE', #290, #290, #292, .T. ) ;
#247 = EDGE_LOOP ( 'NONE', ( #256 ) ) ;
#248 = AXIS2_PLACEMENT_3D ( 'NONE', #233, #183, #299 ) ;
#249 = APPROVAL_STATUS ( 'not_yet_approved' ) ;
#250 = EDGE_LOOP ( 'NONE', ( #251 ) ) ;
#251 = ORIENTED_EDGE ( 'NONE', *, *, #108, .F. ) ;
#252 = PERSON_AND_ORGANIZATION ( #72, #281 ) ;
#253 = EDGE_LOOP ( 'NONE', ( #34 ) ) ;
#254 = AXIS2_PLACEMENT_3D ( 'NONE', #219, #4, #100 ) ;
#255 = AXIS2_PLACEMENT_3D ( 'NONE', #258, #104, #235 ) ;
#256 = ORIENTED_EDGE ( 'NONE', *, *, #198, .T. ) ;
#257 = DIRECTION ( 'NONE',  ( 3.491481338843133355E-15, -1.224646799147353207E-16, 1.000000000000000000 ) ) ;
#258 = CARTESIAN_POINT ( 'NONE',  ( 2.793185071074506684E-14, 7.375068731239668283E-33, 8.000000000000000000 ) ) ;
#259 = CLOSED_SHELL ( 'NONE', ( #207, #103, #41, #284, #147, #238, #293, #168 ) ) ;
#260 = DIRECTION ( 'NONE',  ( 0.0000000000000000000, 1.000000000000000000, 0.0000000000000000000 ) ) ;
#261 = CARTESIAN_POINT ( 'NONE',  ( 1.745740669421566678E-13, 8.998558695971067645E-33, 50.00000000000000000 ) ) ;
#262 = DIRECTION ( 'NONE',  ( 4.275831445896958607E-31, 1.000000000000000000, 1.224646799147353207E-16 ) ) ;
#263 = SECURITY_CLASSIFICATION ( '', '', #185 ) ;
#264 = FACE_OUTER_BOUND ( 'NONE', #133, .T. ) ;
#265 = APPROVAL_STATUS ( 'not_yet_approved' ) ;
#266 = PERSON_AND_ORGANIZATION_ROLE ( 'creator' ) ;
#267 = EDGE_LOOP ( 'NONE', ( #231 ) ) ;
#268 = PERSON_AND_ORGANIZATION_ROLE ( 'design_owner' ) ;
#269 = CARTESIAN_POINT ( 'NONE',  ( 6.405924284287275164E-14, 0.8603844939755783683, 18.34729635533384595 ) ) ;
#270 = ADVANCED_FACE ( 'NONE', ( #26 ), #49, .F. ) ;
#271 = APPROVAL_DATE_TIME ( #158, #302 ) ;
#272 = CARTESIAN_POINT ( 'NONE',  ( 1.735266225405037467E-13, -6.086494591762345225E-15, 49.70000000000000284 ) ) ;
#273 = APPROVAL_PERSON_ORGANIZATION ( #132, #79, #222 ) ;
#274 = CARTESIAN_POINT ( 'NONE',  ( 0.0000000000000000000, 0.0000000000000000000, 0.0000000000000000000 ) ) ;
#275 = ORIENTED_EDGE ( 'NONE', *, *, #246, .F. ) ;
#276 = DIRECTION ( 'NONE',  ( -3.491481338843133355E-15, 1.224646799147353207E-16, -1.000000000000000000 ) ) ;
#277 = AXIS2_PLACEMENT_3D ( 'NONE', #283, #119, #74 ) ;
#278 = DIRECTION ( 'NONE',  ( 0.0000000000000000000, 1.000000000000000000, 0.0000000000000000000 ) ) ;
#279 = CARTESIAN_POINT ( 'NONE',  ( 1.745740669421566678E-13, -6.123233995736766085E-15, 50.00000000000000000 ) ) ;
#280 = DIRECTION ( 'NONE',  ( -3.491481338843133355E-15, 1.224646799147353207E-16, -1.000000000000000000 ) ) ;
#281 = ORGANIZATION ( 'UNSPECIFIED', 'UNSPECIFIED', '' ) ;
#282 = MANIFOLD_SOLID_BREP ( 'Corps-Déplacer/Copier1[1]', #259 ) ;
#283 = CARTESIAN_POINT ( 'NONE',  ( 2.793185071074506684E-14, -9.797174393178825657E-16, 8.000000000000000000 ) ) ;
#284 = ADVANCED_FACE ( 'NONE', ( #264, #54 ), #138, .F. ) ;
#285 = FACE_OUTER_BOUND ( 'NONE', #39, .T. ) ;
#286 = CYLINDRICAL_SURFACE ( 'NONE', #297, 0.9834999999999995968 ) ;
#287 = CONICAL_SURFACE ( 'NONE', #157, 1.499999999999996669, 0.1745329251994260922 ) ;
#288 = AXIS2_PLACEMENT_3D ( 'NONE', #124, #146, #221 ) ;
#289 = APPLICATION_PROTOCOL_DEFINITION ( 'international standard', 'config_control_design', 1994, #43 ) ;
#290 = VERTEX_POINT ( 'NONE', #32 ) ;
#291 = VERTEX_POINT ( 'NONE', #244 ) ;
#292 = CIRCLE ( 'NONE', #277, 0.9835000000000000409 ) ;
#293 = ADVANCED_FACE ( 'NONE', ( #152, #5 ), #70, .T. ) ;
#294 = DIRECTION ( 'NONE',  ( 0.0000000000000000000, 0.0000000000000000000, 1.000000000000000000 ) ) ;
#295 = PERSON_AND_ORGANIZATION_ROLE ( 'creator' ) ;
#296 = FACE_OUTER_BOUND ( 'NONE', #98, .T. ) ;
#297 = AXIS2_PLACEMENT_3D ( 'NONE', #50, #77, #217 ) ;
#298 = EDGE_LOOP ( 'NONE', ( #64 ) ) ;
#299 = DIRECTION ( 'NONE',  ( 0.0000000000000000000, 1.000000000000000000, 0.0000000000000000000 ) ) ;
#300 = ORIENTED_EDGE ( 'NONE', *, *, #67, .T. ) ;
#301 = CIRCLE ( 'NONE', #234, 1.499999999999996669 ) ;
#302 = APPROVAL ( #249, 'UNSPECIFIED' ) ;
#303 = DIRECTION ( 'NONE',  ( 4.275831445896958607E-31, 1.000000000000000000, 1.224646799147353207E-16 ) ) ;
ENDSEC;
END-ISO-10303-21;
