ISO-10303-21;
HEADER;
FILE_DESCRIPTION (( 'STEP AP203' ),
    '1' );
FILE_NAME ('200144.step',
    '2021-11-30T06:44:57',
    ( '' ),
    ( '' ),
    'SwSTEP 2.0',
    'SolidWorks 2019',
    '' );
FILE_SCHEMA (( 'CONFIG_CONTROL_DESIGN' ));
ENDSEC;

DATA;
#1 = CALENDAR_DATE ( 2021, 30, 11 ) ;
#2 = PERSON_AND_ORGANIZATION ( #296, #90 ) ;
#3 = CARTESIAN_POINT ( 'NONE',  ( 0.0000000000000000000, 0.0000000000000000000, 0.0000000000000000000 ) ) ;
#4 = EDGE_CURVE ( 'NONE', #96, #96, #12, .T. ) ;
#5 = CARTESIAN_POINT ( 'NONE',  ( 0.0000000000000000000, 0.0000000000000000000, 0.0000000000000000000 ) ) ;
#6 = AXIS2_PLACEMENT_3D ( 'NONE', #98, #9, #19 ) ;
#7 = CC_DESIGN_APPROVAL ( #231, ( #242 ) ) ;
#8 = CC_DESIGN_PERSON_AND_ORGANIZATION_ASSIGNMENT ( #86, #253, ( #259 ) ) ;
#9 = DIRECTION ( 'NONE',  ( -3.491481338843133355E-15, 1.224646799147353207E-16, -1.000000000000000000 ) ) ;
#10 = CARTESIAN_POINT ( 'NONE',  ( 1.745740669421566678E-13, -6.123233995736766085E-15, 50.00000000000000000 ) ) ;
#11 = DIRECTION ( 'NONE',  ( 0.0000000000000000000, 1.000000000000000000, 0.0000000000000000000 ) ) ;
#12 = CIRCLE ( 'NONE', #211, 0.9303844939755799848 ) ;
#13 = PRODUCT_DEFINITION_FORMATION_WITH_SPECIFIED_SOURCE ( 'ANY', '', #111, .NOT_KNOWN. ) ;
#14 = FACE_OUTER_BOUND ( 'NONE', #201, .T. ) ;
#15 = VERTEX_POINT ( 'NONE', #106 ) ;
#16 = APPROVAL_PERSON_ORGANIZATION ( #277, #57, #155 ) ;
#17 = EDGE_CURVE ( 'NONE', #99, #99, #254, .T. ) ;
#18 = EDGE_LOOP ( 'NONE', ( #159 ) ) ;
#19 = DIRECTION ( 'NONE',  ( 0.0000000000000000000, 1.000000000000000000, 0.0000000000000000000 ) ) ;
#20 = FACE_OUTER_BOUND ( 'NONE', #183, .T. ) ;
#21 = DIRECTION ( 'NONE',  ( -4.275831445896958607E-31, -1.000000000000000000, -1.224646799147353207E-16 ) ) ;
#22 = COORDINATED_UNIVERSAL_TIME_OFFSET ( 1, 0, .AHEAD. ) ;
#23 = APPROVAL_PERSON_ORGANIZATION ( #215, #231, #32 ) ;
#24 = PERSON_AND_ORGANIZATION ( #296, #90 ) ;
#25 = CC_DESIGN_PERSON_AND_ORGANIZATION_ASSIGNMENT ( #2, #182, ( #111 ) ) ;
#26 = FACE_OUTER_BOUND ( 'NONE', #218, .T. ) ;
#27 = ORIENTED_EDGE ( 'NONE', *, *, #4, .F. ) ;
#28 = EDGE_LOOP ( 'NONE', ( #274 ) ) ;
#29 = DIRECTION ( 'NONE',  ( -3.491481338843133355E-15, 1.224646799147353207E-16, -1.000000000000000000 ) ) ;
#30 = DIRECTION ( 'NONE',  ( 4.275831445896958607E-31, 1.000000000000000000, 1.224646799147353207E-16 ) ) ;
#31 = CIRCLE ( 'NONE', #55, 1.500000000000001554 ) ;
#32 = APPROVAL_ROLE ( '' ) ;
#33 = CARTESIAN_POINT ( 'NONE',  ( 1.735266225405037467E-13, -6.086494591762345225E-15, 49.70000000000000284 ) ) ;
#34 = LOCAL_TIME ( 7, 44, 57.00000000000000000, #177 ) ;
#35 = DIRECTION ( 'NONE',  ( 0.0000000000000000000, 1.000000000000000000, 0.0000000000000000000 ) ) ;
#36 = CARTESIAN_POINT ( 'NONE',  ( 6.405924284287275164E-14, -2.246895775456749140E-15, 18.34729635533384595 ) ) ;
#37 = DIRECTION ( 'NONE',  ( -3.491481338843133355E-15, 1.224646799147353207E-16, -1.000000000000000000 ) ) ;
#38 = DIRECTION ( 'NONE',  ( 3.656250487683413497E-31, 1.000000000000000000, 1.029143020869013456E-16 ) ) ;
#39 =( LENGTH_UNIT ( ) NAMED_UNIT ( * ) SI_UNIT ( .MILLI., .METRE. ) );
#40 = DIRECTION ( 'NONE',  ( -3.491481338843133355E-15, 1.224646799147353207E-16, -1.000000000000000000 ) ) ;
#41 = PERSON_AND_ORGANIZATION_ROLE ( 'creator' ) ;
#42 = AXIS2_PLACEMENT_3D ( 'NONE', #5, #280, #255 ) ;
#43 = EDGE_CURVE ( 'NONE', #129, #129, #226, .T. ) ;
#44 = COORDINATED_UNIVERSAL_TIME_OFFSET ( 1, 0, .AHEAD. ) ;
#45 = CC_DESIGN_DATE_AND_TIME_ASSIGNMENT ( #288, #217, ( #242 ) ) ;
#46 = ORIENTED_EDGE ( 'NONE', *, *, #4, .T. ) ;
#47 = CC_DESIGN_APPROVAL ( #57, ( #13 ) ) ;
#48 = CARTESIAN_POINT ( 'NONE',  ( 2.793185071074506684E-14, -9.797174393178825657E-16, 8.000000000000000000 ) ) ;
#49 = EDGE_LOOP ( 'NONE', ( #281 ) ) ;
#50 = AXIS2_PLACEMENT_3D ( 'NONE', #79, #301, #38 ) ;
#51 = CARTESIAN_POINT ( 'NONE',  ( 2.793185071074506684E-14, -9.797174393178825657E-16, 8.000000000000000000 ) ) ;
#52 = EDGE_CURVE ( 'NONE', #287, #287, #241, .T. ) ;
#53 = DIRECTION ( 'NONE',  ( 0.0000000000000000000, -1.000000000000000000, 0.0000000000000000000 ) ) ;
#54 = CARTESIAN_POINT ( 'NONE',  ( 6.284666409917640040E-14, 0.8999999999999975797, 18.00000000000000000 ) ) ;
#55 = AXIS2_PLACEMENT_3D ( 'NONE', #33, #81, #11 ) ;
#56 = DIRECTION ( 'NONE',  ( -3.491481338843133355E-15, 1.224646799147353207E-16, -1.000000000000000000 ) ) ;
#57 = APPROVAL ( #62, 'UNSPECIFIED' ) ;
#58 = AXIS2_PLACEMENT_3D ( 'NONE', #48, #302, #228 ) ;
#59 = EDGE_LOOP ( 'NONE', ( #169 ) ) ;
#60 = DIRECTION ( 'NONE',  ( 0.0000000000000000000, 1.000000000000000000, 0.0000000000000000000 ) ) ;
#61 = EDGE_LOOP ( 'NONE', ( #225 ) ) ;
#62 = APPROVAL_STATUS ( 'not_yet_approved' ) ;
#63 = DATE_AND_TIME ( #84, #170 ) ;
#64 = ADVANCED_FACE ( 'NONE', ( #142, #212 ), #132, .T. ) ;
#65 = SECURITY_CLASSIFICATION_LEVEL ( 'unclassified' ) ;
#66 = EDGE_CURVE ( 'NONE', #164, #164, #265, .T. ) ;
#67 = DATE_AND_TIME ( #1, #34 ) ;
#68 = EDGE_LOOP ( 'NONE', ( #269 ) ) ;
#69 = AXIS2_PLACEMENT_3D ( 'NONE', #10, #29, #193 ) ;
#70 = AXIS2_PLACEMENT_3D ( 'NONE', #92, #74, #262 ) ;
#71 = DIRECTION ( 'NONE',  ( -3.491481338843133355E-15, 1.224646799147353207E-16, -1.000000000000000000 ) ) ;
#72 = AXIS2_PLACEMENT_3D ( 'NONE', #161, #224, #171 ) ;
#73 = ADVANCED_FACE ( 'NONE', ( #80, #82 ), #101, .T. ) ;
#74 = DIRECTION ( 'NONE',  ( -3.491481338843133355E-15, 1.224646799147353207E-16, -1.000000000000000000 ) ) ;
#75 = CARTESIAN_POINT ( 'NONE',  ( 8.728703347107835360E-16, 1.053499999999998771, 0.2500000000000000555 ) ) ;
#76 = VERTEX_POINT ( 'NONE', #54 ) ;
#77 = AXIS2_PLACEMENT_3D ( 'NONE', #131, #227, #109 ) ;
#78 = CARTESIAN_POINT ( 'NONE',  ( 0.0000000000000000000, 0.0000000000000000000, 0.0000000000000000000 ) ) ;
#79 = CARTESIAN_POINT ( 'NONE',  ( 8.728703347107831416E-16, -3.061616997868382402E-17, 0.2499999999999999445 ) ) ;
#80 = FACE_OUTER_BOUND ( 'NONE', #294, .T. ) ;
#81 = DIRECTION ( 'NONE',  ( -3.491481338843133355E-15, 1.224646799147353207E-16, -1.000000000000000000 ) ) ;
#82 = FACE_BOUND ( 'NONE', #61, .T. ) ;
#83 = EDGE_LOOP ( 'NONE', ( #27 ) ) ;
#84 = CALENDAR_DATE ( 2021, 30, 11 ) ;
#85 = CC_DESIGN_DATE_AND_TIME_ASSIGNMENT ( #114, #108, ( #259 ) ) ;
#86 = PERSON_AND_ORGANIZATION ( #296, #90 ) ;
#87 = CIRCLE ( 'NONE', #147, 0.9091624327025944474 ) ;
#88 = DIRECTION ( 'NONE',  ( 1.000000000000000000, 0.0000000000000000000, 0.0000000000000000000 ) ) ;
#89 = ORIENTED_EDGE ( 'NONE', *, *, #52, .T. ) ;
#90 = ORGANIZATION ( 'UNSPECIFIED', 'UNSPECIFIED', '' ) ;
#91 = ADVANCED_FACE ( 'NONE', ( #195, #202 ), #293, .T. ) ;
#92 = CARTESIAN_POINT ( 'NONE',  ( 1.745740669421566678E-13, 8.998558695971067645E-33, 50.00000000000000000 ) ) ;
#93 = CC_DESIGN_PERSON_AND_ORGANIZATION_ASSIGNMENT ( #24, #252, ( #242 ) ) ;
#94 = SHAPE_DEFINITION_REPRESENTATION ( #248, #239 ) ;
#95 = CLOSED_SHELL ( 'NONE', ( #180, #64, #91, #127, #258, #150, #73, #209 ) ) ;
#96 = VERTEX_POINT ( 'NONE', #163 ) ;
#97 = CC_DESIGN_APPROVAL ( #181, ( #259 ) ) ;
#98 = CARTESIAN_POINT ( 'NONE',  ( 2.886013015238226509E-14, -1.012277099146737952E-15, 8.265869798961828607 ) ) ;
#99 = VERTEX_POINT ( 'NONE', #260 ) ;
#100 = FACE_OUTER_BOUND ( 'NONE', #116, .T. ) ;
#101 = CONICAL_SURFACE ( 'NONE', #77, 1.200000000000001732, 0.7853981633974453924 ) ;
#102 = ORIENTED_EDGE ( 'NONE', *, *, #271, .F. ) ;
#103 = FACE_BOUND ( 'NONE', #272, .T. ) ;
#104 = DIRECTION ( 'NONE',  ( -3.491481338843133355E-15, 1.224646799147353207E-16, -1.000000000000000000 ) ) ;
#105 = ADVANCED_FACE ( 'NONE', ( #103, #246 ), #156, .T. ) ;
#106 = CARTESIAN_POINT ( 'NONE',  ( 2.793185071074506684E-14, 1.053499999999998771, 8.000000000000000000 ) ) ;
#107 = AXIS2_PLACEMENT_3D ( 'NONE', #261, #289, #291 ) ;
#108 = DATE_TIME_ROLE ( 'creation_date' ) ;
#109 = DIRECTION ( 'NONE',  ( 0.0000000000000000000, 1.000000000000000000, 0.0000000000000000000 ) ) ;
#110 = PERSON_AND_ORGANIZATION ( #296, #90 ) ;
#111 = PRODUCT ( '200144', '200144', '', ( #279 ) ) ;
#112 = CC_DESIGN_PERSON_AND_ORGANIZATION_ASSIGNMENT ( #110, #134, ( #13 ) ) ;
#113 = COORDINATED_UNIVERSAL_TIME_OFFSET ( 1, 0, .AHEAD. ) ;
#114 = DATE_AND_TIME ( #179, #292 ) ;
#115 = EDGE_LOOP ( 'NONE', ( #89 ) ) ;
#116 = EDGE_LOOP ( 'NONE', ( #198 ) ) ;
#117 = EDGE_LOOP ( 'NONE', ( #221 ) ) ;
#118 = AXIS2_PLACEMENT_3D ( 'NONE', #146, #284, #53 ) ;
#119 = EDGE_CURVE ( 'NONE', #76, #76, #245, .T. ) ;
#120 =( NAMED_UNIT ( * ) PLANE_ANGLE_UNIT ( ) SI_UNIT ( $, .RADIAN. ) );
#121 = CARTESIAN_POINT ( 'NONE',  ( 0.0000000000000000000, 0.0000000000000000000, 0.0000000000000000000 ) ) ;
#122 = AXIS2_PLACEMENT_3D ( 'NONE', #168, #220, #270 ) ;
#123 = VERTEX_POINT ( 'NONE', #141 ) ;
#124 = EDGE_LOOP ( 'NONE', ( #137 ) ) ;
#125 = TOROIDAL_SURFACE ( 'NONE', #213, 2.899999999999999911, 2.000000000000000444 ) ;
#126 = CARTESIAN_POINT ( 'NONE',  ( 2.886013015238226509E-14, -1.012277099146737952E-15, 8.265869798961828607 ) ) ;
#127 = ADVANCED_FACE ( 'NONE', ( #222, #20 ), #125, .F. ) ;
#128 = DIRECTION ( 'NONE',  ( 0.0000000000000000000, 1.000000000000000000, 0.0000000000000000000 ) ) ;
#129 = VERTEX_POINT ( 'NONE', #189 ) ;
#130 = CARTESIAN_POINT ( 'NONE',  ( 1.735266225405037467E-13, 1.499999999999995559, 49.70000000000000284 ) ) ;
#131 = CARTESIAN_POINT ( 'NONE',  ( 1.745740669421566678E-13, -6.123233995736766085E-15, 50.00000000000000000 ) ) ;
#132 = CONICAL_SURFACE ( 'NONE', #6, 0.8999999999999985789, 0.5235987755982922653 ) ;
#133 = LOCAL_TIME ( 7, 44, 57.00000000000000000, #190 ) ;
#134 = PERSON_AND_ORGANIZATION_ROLE ( 'design_supplier' ) ;
#135 = APPROVAL_DATE_TIME ( #67, #181 ) ;
#136 = APPLICATION_PROTOCOL_DEFINITION ( 'international standard', 'config_control_design', 1994, #247 ) ;
#137 = ORIENTED_EDGE ( 'NONE', *, *, #158, .T. ) ;
#138 = ORIENTED_EDGE ( 'NONE', *, *, #295, .F. ) ;
#139 = MANIFOLD_SOLID_BREP ( 'Corps-Déplacer/Copier1[1]', #95 ) ;
#140 = AXIS2_PLACEMENT_3D ( 'NONE', #51, #56, #60 ) ;
#141 = CARTESIAN_POINT ( 'NONE',  ( 2.793185071074506684E-14, 1.053499999999998771, 8.000000000000000000 ) ) ;
#142 = FACE_OUTER_BOUND ( 'NONE', #49, .T. ) ;
#143 = CARTESIAN_POINT ( 'NONE',  ( 2.793185071074506684E-14, 7.899984655171319540E-33, 8.000000000000000000 ) ) ;
#144 = APPROVAL_STATUS ( 'not_yet_approved' ) ;
#145 = DIRECTION ( 'NONE',  ( 0.0000000000000000000, 1.000000000000000000, 0.0000000000000000000 ) ) ;
#146 = CARTESIAN_POINT ( 'NONE',  ( 7.533829895560830494E-14, -2.642511808462434453E-15, 21.57774641882258493 ) ) ;
#147 = AXIS2_PLACEMENT_3D ( 'NONE', #243, #71, #286 ) ;
#148 = DATE_AND_TIME ( #268, #133 ) ;
#149 = DIRECTION ( 'NONE',  ( 4.275831445896958607E-31, 1.000000000000000000, 1.224646799147353207E-16 ) ) ;
#150 = ADVANCED_FACE ( 'NONE', ( #184, #26 ), #206, .T. ) ;
#151 = CARTESIAN_POINT ( 'NONE',  ( 6.284666409917640040E-14, -2.204364238465235428E-15, 18.00000000000000000 ) ) ;
#152 = VERTEX_POINT ( 'NONE', #130 ) ;
#153 = ORIENTED_EDGE ( 'NONE', *, *, #17, .F. ) ;
#154 = PLANE ( 'NONE',  #205 ) ;
#155 = APPROVAL_ROLE ( '' ) ;
#156 = CONICAL_SURFACE ( 'NONE', #122, 1.053499999999998771, 0.5235987755982924874 ) ;
#157 = PERSON_AND_ORGANIZATION ( #296, #90 ) ;
#158 = EDGE_CURVE ( 'NONE', #15, #15, #208, .T. ) ;
#159 = ORIENTED_EDGE ( 'NONE', *, *, #158, .F. ) ;
#160 = ORIENTED_EDGE ( 'NONE', *, *, #271, .T. ) ;
#161 = CARTESIAN_POINT ( 'NONE',  ( -2.890080572780545921E-31, 1.013703806277929371E-32, -8.277519746785027010E-17 ) ) ;
#162 = APPROVAL_DATE_TIME ( #148, #231 ) ;
#163 = CARTESIAN_POINT ( 'NONE',  ( 6.405924284287275164E-14, 0.9303844939755776533, 18.34729635533384595 ) ) ;
#164 = VERTEX_POINT ( 'NONE', #75 ) ;
#165 = CC_DESIGN_SECURITY_CLASSIFICATION ( #242, ( #13 ) ) ;
#166 = CALENDAR_DATE ( 2021, 30, 11 ) ;
#167 = ADVANCED_FACE ( 'NONE', ( #173, #275 ), #223, .T. ) ;
#168 = CARTESIAN_POINT ( 'NONE',  ( 8.728703347107831416E-16, -3.061616997868382402E-17, 0.2499999999999999445 ) ) ;
#169 = ORIENTED_EDGE ( 'NONE', *, *, #229, .T. ) ;
#170 = LOCAL_TIME ( 7, 44, 57.00000000000000000, #113 ) ;
#171 = DIRECTION ( 'NONE',  ( -4.275831445896958607E-31, -1.000000000000000000, -1.224646799147353207E-16 ) ) ;
#172 = EDGE_LOOP ( 'NONE', ( #196 ) ) ;
#173 = FACE_OUTER_BOUND ( 'NONE', #117, .T. ) ;
#174 = DIRECTION ( 'NONE',  ( 0.0000000000000000000, 0.0000000000000000000, 1.000000000000000000 ) ) ;
#175 = DIRECTION ( 'NONE',  ( -3.491481338843133355E-15, 1.224646799147353207E-16, -1.000000000000000000 ) ) ;
#176 = UNCERTAINTY_MEASURE_WITH_UNIT (LENGTH_MEASURE( 1.000000000000000082E-05 ), #39, 'distance_accuracy_value', 'NONE');
#177 = COORDINATED_UNIVERSAL_TIME_OFFSET ( 1, 0, .AHEAD. ) ;
#178 = AXIS2_PLACEMENT_3D ( 'NONE', #151, #37, #128 ) ;
#179 = CALENDAR_DATE ( 2021, 30, 11 ) ;
#180 = ADVANCED_FACE ( 'NONE', ( #191 ), #154, .F. ) ;
#181 = APPROVAL ( #278, 'UNSPECIFIED' ) ;
#182 = PERSON_AND_ORGANIZATION_ROLE ( 'design_owner' ) ;
#183 = EDGE_LOOP ( 'NONE', ( #46 ) ) ;
#184 = FACE_OUTER_BOUND ( 'NONE', #28, .T. ) ;
#185 = EDGE_LOOP ( 'NONE', ( #153 ) ) ;
#186 = PLANE ( 'NONE',  #219 ) ;
#187 =( GEOMETRIC_REPRESENTATION_CONTEXT ( 3 ) GLOBAL_UNCERTAINTY_ASSIGNED_CONTEXT ( ( #176 ) ) GLOBAL_UNIT_ASSIGNED_CONTEXT ( ( #39, #120, #200 ) ) REPRESENTATION_CONTEXT ( 'NONE', 'WORKASPACE' ) );
#188 = CARTESIAN_POINT ( 'NONE',  ( 2.793185071074506684E-14, 7.899984655171319540E-33, 8.000000000000000000 ) ) ;
#189 = CARTESIAN_POINT ( 'NONE',  ( 1.745740669421566678E-13, 1.199999999999995515, 50.00000000000000000 ) ) ;
#190 = COORDINATED_UNIVERSAL_TIME_OFFSET ( 1, 0, .AHEAD. ) ;
#191 = FACE_OUTER_BOUND ( 'NONE', #59, .T. ) ;
#192 = DESIGN_CONTEXT ( 'detailed design', #247, 'design' ) ;
#193 = DIRECTION ( 'NONE',  ( 0.0000000000000000000, 1.000000000000000000, 0.0000000000000000000 ) ) ;
#194 = PRODUCT_RELATED_PRODUCT_CATEGORY ( 'detail', '', ( #111 ) ) ;
#195 = FACE_OUTER_BOUND ( 'NONE', #185, .T. ) ;
#196 = ORIENTED_EDGE ( 'NONE', *, *, #119, .F. ) ;
#197 = DIRECTION ( 'NONE',  ( 3.491481338843133355E-15, -1.224646799147353207E-16, 1.000000000000000000 ) ) ;
#198 = ORIENTED_EDGE ( 'NONE', *, *, #43, .F. ) ;
#199 = AXIS2_PLACEMENT_3D ( 'NONE', #3, #174, #88 ) ;
#200 =( NAMED_UNIT ( * ) SI_UNIT ( $, .STERADIAN. ) SOLID_ANGLE_UNIT ( ) );
#201 = EDGE_LOOP ( 'NONE', ( #160 ) ) ;
#202 = FACE_OUTER_BOUND ( 'NONE', #207, .T. ) ;
#203 = APPROVAL_DATE_TIME ( #63, #57 ) ;
#204 = ADVANCED_FACE ( 'NONE', ( #14 ), #267, .F. ) ;
#205 = AXIS2_PLACEMENT_3D ( 'NONE', #188, #197, #21 ) ;
#206 = CYLINDRICAL_SURFACE ( 'NONE', #42, 1.499999999999999112 ) ;
#207 = EDGE_LOOP ( 'NONE', ( #235 ) ) ;
#208 = CIRCLE ( 'NONE', #58, 1.053499999999999881 ) ;
#209 = ADVANCED_FACE ( 'NONE', ( #100 ), #298, .F. ) ;
#210 = FACE_OUTER_BOUND ( 'NONE', #18, .T. ) ;
#211 = AXIS2_PLACEMENT_3D ( 'NONE', #36, #175, #35 ) ;
#212 = FACE_BOUND ( 'NONE', #303, .T. ) ;
#213 = AXIS2_PLACEMENT_3D ( 'NONE', #282, #257, #237 ) ;
#214 = FACE_OUTER_BOUND ( 'NONE', #115, .T. ) ;
#215 = PERSON_AND_ORGANIZATION ( #296, #90 ) ;
#216 = DIRECTION ( 'NONE',  ( -4.275831445896958607E-31, -1.000000000000000000, -1.224646799147353207E-16 ) ) ;
#217 = DATE_TIME_ROLE ( 'classification_date' ) ;
#218 = EDGE_LOOP ( 'NONE', ( #299 ) ) ;
#219 = AXIS2_PLACEMENT_3D ( 'NONE', #143, #240, #216 ) ;
#220 = DIRECTION ( 'NONE',  ( 3.491481338843133355E-15, -1.224646799147353207E-16, 1.000000000000000000 ) ) ;
#221 = ORIENTED_EDGE ( 'NONE', *, *, #66, .F. ) ;
#222 = FACE_OUTER_BOUND ( 'NONE', #172, .T. ) ;
#223 = CYLINDRICAL_SURFACE ( 'NONE', #250, 1.053499999999999215 ) ;
#224 = DIRECTION ( 'NONE',  ( 3.491481338843133355E-15, -1.224646799147353207E-16, 1.000000000000000000 ) ) ;
#225 = ORIENTED_EDGE ( 'NONE', *, *, #43, .T. ) ;
#226 = CIRCLE ( 'NONE', #69, 1.200000000000001732 ) ;
#227 = DIRECTION ( 'NONE',  ( -3.491481338843133355E-15, 1.224646799147353207E-16, -1.000000000000000000 ) ) ;
#228 = DIRECTION ( 'NONE',  ( 0.0000000000000000000, 1.000000000000000000, 0.0000000000000000000 ) ) ;
#229 = EDGE_CURVE ( 'NONE', #123, #123, #266, .T. ) ;
#230 = APPLICATION_PROTOCOL_DEFINITION ( 'international standard', 'config_control_design', 1994, #263 ) ;
#231 = APPROVAL ( #144, 'UNSPECIFIED' ) ;
#232 = APPROVAL_ROLE ( '' ) ;
#233 = CLOSED_SHELL ( 'NONE', ( #204, #105, #167, #238 ) ) ;
#234 = APPROVAL_PERSON_ORGANIZATION ( #276, #181, #232 ) ;
#235 = ORIENTED_EDGE ( 'NONE', *, *, #119, .T. ) ;
#236 = ORIENTED_EDGE ( 'NONE', *, *, #17, .T. ) ;
#237 = DIRECTION ( 'NONE',  ( 4.275831445896958607E-31, 1.000000000000000000, 1.224646799147353207E-16 ) ) ;
#238 = ADVANCED_FACE ( 'NONE', ( #210 ), #186, .T. ) ;
#239 = ADVANCED_BREP_SHAPE_REPRESENTATION ( '200144', ( #139, #244, #199 ), #187 ) ;
#240 = DIRECTION ( 'NONE',  ( 3.491481338843133355E-15, -1.224646799147353207E-16, 1.000000000000000000 ) ) ;
#241 = CIRCLE ( 'NONE', #107, 1.499999999999996669 ) ;
#242 = SECURITY_CLASSIFICATION ( '', '', #65 ) ;
#243 = CARTESIAN_POINT ( 'NONE',  ( -5.780161145561091841E-31, 2.027407612555858741E-32, -1.655503949357005402E-16 ) ) ;
#244 = MANIFOLD_SOLID_BREP ( 'Corps-Déplacer/Copier1[2]', #233 ) ;
#245 = CIRCLE ( 'NONE', #178, 0.8999999999999998002 ) ;
#246 = FACE_OUTER_BOUND ( 'NONE', #68, .T. ) ;
#247 = APPLICATION_CONTEXT ( 'configuration controlled 3d designs of mechanical parts and assemblies' ) ;
#248 = PRODUCT_DEFINITION_SHAPE ( 'NONE', 'NONE',  #259 ) ;
#249 = FACE_BOUND ( 'NONE', #83, .T. ) ;
#250 = AXIS2_PLACEMENT_3D ( 'NONE', #121, #40, #30 ) ;
#251 = CC_DESIGN_PERSON_AND_ORGANIZATION_ASSIGNMENT ( #157, #41, ( #13 ) ) ;
#252 = PERSON_AND_ORGANIZATION_ROLE ( 'classification_officer' ) ;
#253 = PERSON_AND_ORGANIZATION_ROLE ( 'creator' ) ;
#254 = CIRCLE ( 'NONE', #300, 0.8999999999999985789 ) ;
#255 = DIRECTION ( 'NONE',  ( 4.275831445896958607E-31, 1.000000000000000000, 1.224646799147353454E-16 ) ) ;
#256 = AXIS2_PLACEMENT_3D ( 'NONE', #78, #297, #149 ) ;
#257 = DIRECTION ( 'NONE',  ( -3.491481338843133355E-15, 1.224646799147353207E-16, -1.000000000000000000 ) ) ;
#258 = ADVANCED_FACE ( 'NONE', ( #249, #214 ), #285, .T. ) ;
#259 = PRODUCT_DEFINITION ( 'UNKNOWN', '', #13, #192 ) ;
#260 = CARTESIAN_POINT ( 'NONE',  ( 2.886013015238226509E-14, 0.8999999999999975797, 8.265869798961828607 ) ) ;
#261 = CARTESIAN_POINT ( 'NONE',  ( 7.533829895560830494E-14, -2.642511808462434453E-15, 21.57774641882258493 ) ) ;
#262 = DIRECTION ( 'NONE',  ( 4.275831445896958607E-31, 1.000000000000000000, 1.224646799147353207E-16 ) ) ;
#263 = APPLICATION_CONTEXT ( 'configuration controlled 3d designs of mechanical parts and assemblies' ) ;
#264 = CARTESIAN_POINT ( 'NONE',  ( 7.533829895560830494E-14, 1.499999999999994005, 21.57774641882258493 ) ) ;
#265 = CIRCLE ( 'NONE', #50, 1.053499999999998771 ) ;
#266 = CIRCLE ( 'NONE', #140, 1.053499999999999881 ) ;
#267 = PLANE ( 'NONE',  #72 ) ;
#268 = CALENDAR_DATE ( 2021, 30, 11 ) ;
#269 = ORIENTED_EDGE ( 'NONE', *, *, #66, .T. ) ;
#270 = DIRECTION ( 'NONE',  ( -3.656250487683413497E-31, -1.000000000000000000, -1.029143020869013456E-16 ) ) ;
#271 = EDGE_CURVE ( 'NONE', #273, #273, #87, .T. ) ;
#272 = EDGE_LOOP ( 'NONE', ( #102 ) ) ;
#273 = VERTEX_POINT ( 'NONE', #290 ) ;
#274 = ORIENTED_EDGE ( 'NONE', *, *, #52, .F. ) ;
#275 = FACE_OUTER_BOUND ( 'NONE', #124, .T. ) ;
#276 = PERSON_AND_ORGANIZATION ( #296, #90 ) ;
#277 = PERSON_AND_ORGANIZATION ( #296, #90 ) ;
#278 = APPROVAL_STATUS ( 'not_yet_approved' ) ;
#279 = MECHANICAL_CONTEXT ( 'NONE', #263, 'mechanical' ) ;
#280 = DIRECTION ( 'NONE',  ( -3.491481338843133355E-15, 1.224646799147353207E-16, -1.000000000000000000 ) ) ;
#281 = ORIENTED_EDGE ( 'NONE', *, *, #229, .F. ) ;
#282 = CARTESIAN_POINT ( 'NONE',  ( 6.284666409917640040E-14, -2.168404344971008868E-15, 18.00000000000000000 ) ) ;
#283 = LOCAL_TIME ( 7, 44, 57.00000000000000000, #44 ) ;
#284 = DIRECTION ( 'NONE',  ( 3.491481338843133355E-15, -1.224646799147353207E-16, 1.000000000000000000 ) ) ;
#285 = CONICAL_SURFACE ( 'NONE', #118, 1.499999999999996669, 0.1745329251994263142 ) ;
#286 = DIRECTION ( 'NONE',  ( 4.275831445896958607E-31, 1.000000000000000000, 1.224646799147353207E-16 ) ) ;
#287 = VERTEX_POINT ( 'NONE', #264 ) ;
#288 = DATE_AND_TIME ( #166, #283 ) ;
#289 = DIRECTION ( 'NONE',  ( -3.491481338843133355E-15, 1.224646799147353207E-16, -1.000000000000000000 ) ) ;
#290 = CARTESIAN_POINT ( 'NONE',  ( -1.892735826383161356E-31, 0.9091624327025944474, -5.421010862427522170E-17 ) ) ;
#291 = DIRECTION ( 'NONE',  ( 0.0000000000000000000, 1.000000000000000000, 0.0000000000000000000 ) ) ;
#292 = LOCAL_TIME ( 7, 44, 57.00000000000000000, #22 ) ;
#293 = CYLINDRICAL_SURFACE ( 'NONE', #256, 0.8999999999999991340 ) ;
#294 = EDGE_LOOP ( 'NONE', ( #138 ) ) ;
#295 = EDGE_CURVE ( 'NONE', #152, #152, #31, .T. ) ;
#296 = PERSON ( 'UNSPECIFIED', 'UNSPECIFIED', 'UNSPECIFIED', ('UNSPECIFIED'), ('UNSPECIFIED'), ('UNSPECIFIED') ) ;
#297 = DIRECTION ( 'NONE',  ( -3.491481338843133355E-15, 1.224646799147353207E-16, -1.000000000000000000 ) ) ;
#298 = PLANE ( 'NONE',  #70 ) ;
#299 = ORIENTED_EDGE ( 'NONE', *, *, #295, .T. ) ;
#300 = AXIS2_PLACEMENT_3D ( 'NONE', #126, #104, #145 ) ;
#301 = DIRECTION ( 'NONE',  ( -3.491481338843133355E-15, 1.224646799147353207E-16, -1.000000000000000000 ) ) ;
#302 = DIRECTION ( 'NONE',  ( -3.491481338843133355E-15, 1.224646799147353207E-16, -1.000000000000000000 ) ) ;
#303 = EDGE_LOOP ( 'NONE', ( #236 ) ) ;
ENDSEC;
END-ISO-10303-21;
