ISO-10303-21;
HEADER;
FILE_DESCRIPTION (( 'STEP AP203' ),
    '1' );
FILE_NAME ('200143.step',
    '2021-11-30T09:01:40',
    ( '' ),
    ( '' ),
    'SwSTEP 2.0',
    'SolidWorks 2019',
    '' );
FILE_SCHEMA (( 'CONFIG_CONTROL_DESIGN' ));
ENDSEC;

DATA;
#1 =( NAMED_UNIT ( * ) SI_UNIT ( $, .STERADIAN. ) SOLID_ANGLE_UNIT ( ) );
#2 = CALENDAR_DATE ( 2021, 30, 11 ) ;
#3 = ORIENTED_EDGE ( 'NONE', *, *, #221, .F. ) ;
#4 = CALENDAR_DATE ( 2021, 30, 11 ) ;
#5 = PLANE ( 'NONE',  #225 ) ;
#6 = PERSON_AND_ORGANIZATION ( #290, #197 ) ;
#7 = DIRECTION ( 'NONE',  ( 3.491481338843133355E-15, -1.224646799147353454E-16, 1.000000000000000000 ) ) ;
#8 = DESIGN_CONTEXT ( 'detailed design', #252, 'design' ) ;
#9 = DIRECTION ( 'NONE',  ( -3.491481338843133355E-15, 1.224646799147353454E-16, -1.000000000000000000 ) ) ;
#10 = EDGE_LOOP ( 'NONE', ( #38 ) ) ;
#11 = AXIS2_PLACEMENT_3D ( 'NONE', #176, #125, #242 ) ;
#12 = DIRECTION ( 'NONE',  ( 0.0000000000000000000, 1.000000000000000000, 0.0000000000000000000 ) ) ;
#13 = CYLINDRICAL_SURFACE ( 'NONE', #245, 1.049999999999999822 ) ;
#14 = ADVANCED_FACE ( 'NONE', ( #32 ), #5, .F. ) ;
#15 = CC_DESIGN_APPROVAL ( #22, ( #292 ) ) ;
#16 = APPLICATION_PROTOCOL_DEFINITION ( 'international standard', 'config_control_design', 1994, #283 ) ;
#17 = CARTESIAN_POINT ( 'NONE',  ( 0.0000000000000000000, 0.0000000000000000000, 0.0000000000000000000 ) ) ;
#18 = CIRCLE ( 'NONE', #91, 1.263500000000000068 ) ;
#19 = PRODUCT_DEFINITION_FORMATION_WITH_SPECIFIED_SOURCE ( 'ANY', '', #113, .NOT_KNOWN. ) ;
#20 = VERTEX_POINT ( 'NONE', #223 ) ;
#21 = EDGE_CURVE ( 'NONE', #81, #81, #232, .T. ) ;
#22 = APPROVAL ( #24, 'UNSPECIFIED' ) ;
#23 = AXIS2_PLACEMENT_3D ( 'NONE', #131, #267, #12 ) ;
#24 = APPROVAL_STATUS ( 'not_yet_approved' ) ;
#25 = EDGE_LOOP ( 'NONE', ( #152 ) ) ;
#26 = ADVANCED_FACE ( 'NONE', ( #166, #169 ), #123, .T. ) ;
#27 = EDGE_LOOP ( 'NONE', ( #204 ) ) ;
#28 = CC_DESIGN_PERSON_AND_ORGANIZATION_ASSIGNMENT ( #184, #143, ( #19 ) ) ;
#29 = AXIS2_PLACEMENT_3D ( 'NONE', #54, #147, #236 ) ;
#30 = APPROVAL_ROLE ( '' ) ;
#31 = CIRCLE ( 'NONE', #141, 1.500000000000001332 ) ;
#32 = FACE_OUTER_BOUND ( 'NONE', #246, .T. ) ;
#33 = EDGE_LOOP ( 'NONE', ( #233 ) ) ;
#34 = CARTESIAN_POINT ( 'NONE',  ( 3.620593821442183232E-14, -1.269933361840907991E-15, 10.36979284741596352 ) ) ;
#35 = CARTESIAN_POINT ( 'NONE',  ( 6.982962677686266711E-14, -2.449293598294706907E-15, 20.00000000000000000 ) ) ;
#36 = DIRECTION ( 'NONE',  ( 0.0000000000000000000, 1.000000000000000000, 0.0000000000000000000 ) ) ;
#37 = FACE_BOUND ( 'NONE', #185, .T. ) ;
#38 = ORIENTED_EDGE ( 'NONE', *, *, #205, .T. ) ;
#39 = CARTESIAN_POINT ( 'NONE',  ( -1.892735826383160481E-31, 1.119162432702594634, -5.421010862427522170E-17 ) ) ;
#40 = VERTEX_POINT ( 'NONE', #253 ) ;
#41 = VERTEX_POINT ( 'NONE', #274 ) ;
#42 = LOCAL_TIME ( 10, 1, 40.00000000000000000, #119 ) ;
#43 = DIRECTION ( 'NONE',  ( -4.572845139027869621E-31, -1.000000000000000000, -1.287141479009306100E-16 ) ) ;
#44 = ADVANCED_FACE ( 'NONE', ( #98 ), #51, .T. ) ;
#45 = VERTEX_POINT ( 'NONE', #39 ) ;
#46 = CC_DESIGN_DATE_AND_TIME_ASSIGNMENT ( #146, #94, ( #292 ) ) ;
#47 = APPROVAL_DATE_TIME ( #228, #189 ) ;
#48 = DIRECTION ( 'NONE',  ( 3.491481338843133355E-15, -1.224646799147353454E-16, 1.000000000000000000 ) ) ;
#49 = ORIENTED_EDGE ( 'NONE', *, *, #151, .F. ) ;
#50 = PERSON_AND_ORGANIZATION ( #290, #197 ) ;
#51 = PLANE ( 'NONE',  #138 ) ;
#52 = ORIENTED_EDGE ( 'NONE', *, *, #221, .T. ) ;
#53 = APPROVAL_STATUS ( 'not_yet_approved' ) ;
#54 = CARTESIAN_POINT ( 'NONE',  ( 2.129803616694311221E-13, -7.470345474798856659E-15, 61.00000000000000000 ) ) ;
#55 = FACE_OUTER_BOUND ( 'NONE', #288, .T. ) ;
#56 = CARTESIAN_POINT ( 'NONE',  ( -3.339042874599727546E-31, 1.171178583457424748E-32, -9.563398885889749960E-17 ) ) ;
#57 = AXIS2_PLACEMENT_3D ( 'NONE', #112, #220, #43 ) ;
#58 = CARTESIAN_POINT ( 'NONE',  ( 3.491481338843133355E-14, -1.224646799147353454E-15, 10.00000000000000000 ) ) ;
#59 = DIRECTION ( 'NONE',  ( 3.491481338843133355E-15, -1.224646799147353454E-16, 1.000000000000000000 ) ) ;
#60 = FACE_BOUND ( 'NONE', #231, .T. ) ;
#61 = PERSON_AND_ORGANIZATION_ROLE ( 'design_owner' ) ;
#62 = DIRECTION ( 'NONE',  ( 0.0000000000000000000, 1.000000000000000000, 0.0000000000000000000 ) ) ;
#63 = APPROVAL_PERSON_ORGANIZATION ( #276, #22, #30 ) ;
#64 = CARTESIAN_POINT ( 'NONE',  ( 6.982962677686266711E-14, 1.049999999999998046, 20.00000000000000000 ) ) ;
#65 = CALENDAR_DATE ( 2021, 30, 11 ) ;
#66 = ORIENTED_EDGE ( 'NONE', *, *, #275, .T. ) ;
#67 = CIRCLE ( 'NONE', #285, 1.263500000000000068 ) ;
#68 = DIRECTION ( 'NONE',  ( 0.0000000000000000000, 1.000000000000000000, 0.0000000000000000000 ) ) ;
#69 = DATE_TIME_ROLE ( 'classification_date' ) ;
#70 = EDGE_LOOP ( 'NONE', ( #95 ) ) ;
#71 = PERSON_AND_ORGANIZATION_ROLE ( 'classification_officer' ) ;
#72 = FACE_OUTER_BOUND ( 'NONE', #164, .T. ) ;
#73 = DIRECTION ( 'NONE',  ( 0.0000000000000000000, 1.000000000000000000, 0.0000000000000000000 ) ) ;
#74 = PLANE ( 'NONE',  #172 ) ;
#75 = FACE_OUTER_BOUND ( 'NONE', #33, .T. ) ;
#76 = FACE_OUTER_BOUND ( 'NONE', #144, .T. ) ;
#77 = LOCAL_TIME ( 10, 1, 40.00000000000000000, #87 ) ;
#78 = FACE_OUTER_BOUND ( 'NONE', #265, .T. ) ;
#79 = VERTEX_POINT ( 'NONE', #64 ) ;
#80 = AXIS2_PLACEMENT_3D ( 'NONE', #212, #9, #261 ) ;
#81 = VERTEX_POINT ( 'NONE', #303 ) ;
#82 = CC_DESIGN_PERSON_AND_ORGANIZATION_ASSIGNMENT ( #110, #61, ( #113 ) ) ;
#83 =( NAMED_UNIT ( * ) PLANE_ANGLE_UNIT ( ) SI_UNIT ( $, .RADIAN. ) );
#84 = DIRECTION ( 'NONE',  ( -3.491481338843133355E-15, 1.224646799147353454E-16, -1.000000000000000000 ) ) ;
#85 = AXIS2_PLACEMENT_3D ( 'NONE', #175, #291, #297 ) ;
#86 = SHAPE_DEFINITION_REPRESENTATION ( #177, #237 ) ;
#87 = COORDINATED_UNIVERSAL_TIME_OFFSET ( 1, 0, .AHEAD. ) ;
#88 = EDGE_LOOP ( 'NONE', ( #90 ) ) ;
#89 = APPROVAL_ROLE ( '' ) ;
#90 = ORIENTED_EDGE ( 'NONE', *, *, #298, .T. ) ;
#91 = AXIS2_PLACEMENT_3D ( 'NONE', #58, #149, #73 ) ;
#92 = CONICAL_SURFACE ( 'NONE', #57, 1.263499999999998735, 0.5235987755982919323 ) ;
#93 = APPROVAL_PERSON_ORGANIZATION ( #50, #189, #89 ) ;
#94 = DATE_TIME_ROLE ( 'creation_date' ) ;
#95 = ORIENTED_EDGE ( 'NONE', *, *, #275, .F. ) ;
#96 = APPROVAL_DATE_TIME ( #280, #179 ) ;
#97 = ADVANCED_FACE ( 'NONE', ( #72, #171 ), #157, .T. ) ;
#98 = FACE_OUTER_BOUND ( 'NONE', #124, .T. ) ;
#99 = CC_DESIGN_PERSON_AND_ORGANIZATION_ASSIGNMENT ( #203, #254, ( #292 ) ) ;
#100 = ORIENTED_EDGE ( 'NONE', *, *, #205, .F. ) ;
#101 = CIRCLE ( 'NONE', #241, 1.499999999999995559 ) ;
#102 = DIRECTION ( 'NONE',  ( -3.491481338843133355E-15, 1.224646799147353454E-16, -1.000000000000000000 ) ) ;
#103 = DIRECTION ( 'NONE',  ( -3.491481338843133355E-15, 1.224646799147353454E-16, -1.000000000000000000 ) ) ;
#104 = FACE_BOUND ( 'NONE', #70, .T. ) ;
#105 = CIRCLE ( 'NONE', #187, 1.263499999999998735 ) ;
#106 = FACE_OUTER_BOUND ( 'NONE', #27, .T. ) ;
#107 = CONICAL_SURFACE ( 'NONE', #11, 1.499999999999995559, 0.1745329251994266473 ) ;
#108 = DIRECTION ( 'NONE',  ( -3.491481338843133355E-15, 1.224646799147353454E-16, -1.000000000000000000 ) ) ;
#109 = EDGE_CURVE ( 'NONE', #79, #79, #134, .T. ) ;
#110 = PERSON_AND_ORGANIZATION ( #290, #197 ) ;
#111 = CARTESIAN_POINT ( 'NONE',  ( 7.935108543721707958E-14, -2.783261411380038722E-15, 22.72705414587988315 ) ) ;
#112 = CARTESIAN_POINT ( 'NONE',  ( 8.728703347107827472E-16, -3.061616997868381785E-17, 0.2499999999999998335 ) ) ;
#113 = PRODUCT ( '200143', '200143', '', ( #178 ) ) ;
#114 = AXIS2_PLACEMENT_3D ( 'NONE', #34, #200, #194 ) ;
#115 = AXIS2_PLACEMENT_3D ( 'NONE', #173, #102, #243 ) ;
#116 = EDGE_LOOP ( 'NONE', ( #255 ) ) ;
#117 = PERSON_AND_ORGANIZATION ( #290, #197 ) ;
#118 = ORIENTED_EDGE ( 'NONE', *, *, #162, .F. ) ;
#119 = COORDINATED_UNIVERSAL_TIME_OFFSET ( 1, 0, .AHEAD. ) ;
#120 = EDGE_LOOP ( 'NONE', ( #3 ) ) ;
#121 = LOCAL_TIME ( 10, 1, 40.00000000000000000, #137 ) ;
#122 = DATE_AND_TIME ( #284, #302 ) ;
#123 = CYLINDRICAL_SURFACE ( 'NONE', #80, 1.499999999999998224 ) ;
#124 = EDGE_LOOP ( 'NONE', ( #118 ) ) ;
#125 = DIRECTION ( 'NONE',  ( 3.491481338843133355E-15, -1.224646799147353454E-16, 1.000000000000000000 ) ) ;
#126 =( GEOMETRIC_REPRESENTATION_CONTEXT ( 3 ) GLOBAL_UNCERTAINTY_ASSIGNED_CONTEXT ( ( #260 ) ) GLOBAL_UNIT_ASSIGNED_CONTEXT ( ( #133, #83, #1 ) ) REPRESENTATION_CONTEXT ( 'NONE', 'WORKASPACE' ) );
#127 = DIRECTION ( 'NONE',  ( 0.0000000000000000000, 1.000000000000000000, 0.0000000000000000000 ) ) ;
#128 = CARTESIAN_POINT ( 'NONE',  ( -6.678085749199455093E-31, 2.342357166914849496E-32, -1.912679777177949992E-16 ) ) ;
#129 = DIRECTION ( 'NONE',  ( 4.572845139027869621E-31, 1.000000000000000000, 1.287141479009306100E-16 ) ) ;
#130 = TOROIDAL_SURFACE ( 'NONE', #115, 3.050000000000000711, 2.000000000000000000 ) ;
#131 = CARTESIAN_POINT ( 'NONE',  ( 3.620593821442183232E-14, -1.269933361840907991E-15, 10.36979284741596352 ) ) ;
#132 = ORIENTED_EDGE ( 'NONE', *, *, #21, .F. ) ;
#133 =( LENGTH_UNIT ( ) NAMED_UNIT ( * ) SI_UNIT ( .MILLI., .METRE. ) );
#134 = CIRCLE ( 'NONE', #196, 1.050000000000000266 ) ;
#135 = CC_DESIGN_PERSON_AND_ORGANIZATION_ASSIGNMENT ( #165, #71, ( #251 ) ) ;
#136 = AXIS2_PLACEMENT_3D ( 'NONE', #17, #201, #273 ) ;
#137 = COORDINATED_UNIVERSAL_TIME_OFFSET ( 1, 0, .AHEAD. ) ;
#138 = AXIS2_PLACEMENT_3D ( 'NONE', #210, #7, #289 ) ;
#139 = CARTESIAN_POINT ( 'NONE',  ( 2.129803616694311221E-13, -7.470345474798856659E-15, 61.00000000000000000 ) ) ;
#140 = MANIFOLD_SOLID_BREP ( 'Corps-Déplacer/Copier1[2]', #208 ) ;
#141 = AXIS2_PLACEMENT_3D ( 'NONE', #248, #155, #62 ) ;
#142 = ORIENTED_EDGE ( 'NONE', *, *, #109, .F. ) ;
#143 = PERSON_AND_ORGANIZATION_ROLE ( 'design_supplier' ) ;
#144 = EDGE_LOOP ( 'NONE', ( #145 ) ) ;
#145 = ORIENTED_EDGE ( 'NONE', *, *, #162, .T. ) ;
#146 = DATE_AND_TIME ( #2, #42 ) ;
#147 = DIRECTION ( 'NONE',  ( -3.491481338843133355E-15, 1.224646799147353454E-16, -1.000000000000000000 ) ) ;
#148 = FACE_OUTER_BOUND ( 'NONE', #193, .T. ) ;
#149 = DIRECTION ( 'NONE',  ( -3.491481338843133355E-15, 1.224646799147353454E-16, -1.000000000000000000 ) ) ;
#150 = CARTESIAN_POINT ( 'NONE',  ( 8.728703347107827472E-16, -3.061616997868381785E-17, 0.2499999999999998335 ) ) ;
#151 = EDGE_CURVE ( 'NONE', #161, #161, #209, .T. ) ;
#152 = ORIENTED_EDGE ( 'NONE', *, *, #279, .F. ) ;
#153 = DIRECTION ( 'NONE',  ( -3.491481338843133355E-15, 1.224646799147353454E-16, -1.000000000000000000 ) ) ;
#154 = CONICAL_SURFACE ( 'NONE', #23, 1.049999999999999156, 0.5235987755982921543 ) ;
#155 = DIRECTION ( 'NONE',  ( -3.491481338843133355E-15, 1.224646799147353454E-16, -1.000000000000000000 ) ) ;
#156 = CARTESIAN_POINT ( 'NONE',  ( 7.104220552055901835E-14, 1.080384493975578009, 20.34729635533384595 ) ) ;
#157 = CONICAL_SURFACE ( 'NONE', #29, 1.200000000000001510, 0.7853981633974453924 ) ;
#158 = CARTESIAN_POINT ( 'NONE',  ( 8.728703347107833388E-16, 1.263499999999998735, 0.2500000000000000000 ) ) ;
#159 = CIRCLE ( 'NONE', #227, 1.080384493975580451 ) ;
#160 = CC_DESIGN_SECURITY_CLASSIFICATION ( #251, ( #19 ) ) ;
#161 = VERTEX_POINT ( 'NONE', #181 ) ;
#162 = EDGE_CURVE ( 'NONE', #20, #20, #18, .T. ) ;
#163 = COORDINATED_UNIVERSAL_TIME_OFFSET ( 1, 0, .AHEAD. ) ;
#164 = EDGE_LOOP ( 'NONE', ( #262 ) ) ;
#165 = PERSON_AND_ORGANIZATION ( #290, #197 ) ;
#166 = FACE_OUTER_BOUND ( 'NONE', #25, .T. ) ;
#167 = SECURITY_CLASSIFICATION_LEVEL ( 'unclassified' ) ;
#168 = EDGE_CURVE ( 'NONE', #278, #278, #105, .T. ) ;
#169 = FACE_OUTER_BOUND ( 'NONE', #88, .T. ) ;
#170 = CALENDAR_DATE ( 2021, 30, 11 ) ;
#171 = FACE_BOUND ( 'NONE', #191, .T. ) ;
#172 = AXIS2_PLACEMENT_3D ( 'NONE', #240, #272, #271 ) ;
#173 = CARTESIAN_POINT ( 'NONE',  ( 6.982962677686266711E-14, -2.602085213965210642E-15, 20.00000000000000000 ) ) ;
#174 = CARTESIAN_POINT ( 'NONE',  ( 3.491481338843133355E-14, -1.224646799147353454E-15, 10.00000000000000000 ) ) ;
#175 = CARTESIAN_POINT ( 'NONE',  ( 0.0000000000000000000, 0.0000000000000000000, 0.0000000000000000000 ) ) ;
#176 = CARTESIAN_POINT ( 'NONE',  ( 7.935108543721707958E-14, -2.783261411380038722E-15, 22.72705414587988315 ) ) ;
#177 = PRODUCT_DEFINITION_SHAPE ( 'NONE', 'NONE',  #292 ) ;
#178 = MECHANICAL_CONTEXT ( 'NONE', #283, 'mechanical' ) ;
#179 = APPROVAL ( #53, 'UNSPECIFIED' ) ;
#180 = APPLICATION_PROTOCOL_DEFINITION ( 'international standard', 'config_control_design', 1994, #252 ) ;
#181 = CARTESIAN_POINT ( 'NONE',  ( 3.620593821442183232E-14, 1.049999999999997824, 10.36979284741596352 ) ) ;
#182 = CARTESIAN_POINT ( 'NONE',  ( 7.935108543721707958E-14, 1.499999999999992673, 22.72705414587988315 ) ) ;
#183 = ADVANCED_FACE ( 'NONE', ( #106, #76 ), #218, .T. ) ;
#184 = PERSON_AND_ORGANIZATION ( #290, #197 ) ;
#185 = EDGE_LOOP ( 'NONE', ( #229 ) ) ;
#186 = ADVANCED_FACE ( 'NONE', ( #78, #148 ), #130, .F. ) ;
#187 = AXIS2_PLACEMENT_3D ( 'NONE', #150, #199, #129 ) ;
#188 = CARTESIAN_POINT ( 'NONE',  ( 3.491481338843133355E-14, 9.474732426966270576E-33, 10.00000000000000000 ) ) ;
#189 = APPROVAL ( #230, 'UNSPECIFIED' ) ;
#190 = ADVANCED_FACE ( 'NONE', ( #104, #195 ), #107, .T. ) ;
#191 = EDGE_LOOP ( 'NONE', ( #207 ) ) ;
#192 = ORIENTED_EDGE ( 'NONE', *, *, #168, .T. ) ;
#193 = EDGE_LOOP ( 'NONE', ( #66 ) ) ;
#194 = DIRECTION ( 'NONE',  ( 0.0000000000000000000, 1.000000000000000000, 0.0000000000000000000 ) ) ;
#195 = FACE_OUTER_BOUND ( 'NONE', #116, .T. ) ;
#196 = AXIS2_PLACEMENT_3D ( 'NONE', #35, #108, #36 ) ;
#197 = ORGANIZATION ( 'UNSPECIFIED', 'UNSPECIFIED', '' ) ;
#198 = LOCAL_TIME ( 10, 1, 40.00000000000000000, #206 ) ;
#199 = DIRECTION ( 'NONE',  ( -3.491481338843133355E-15, 1.224646799147353454E-16, -1.000000000000000000 ) ) ;
#200 = DIRECTION ( 'NONE',  ( -3.491481338843133355E-15, 1.224646799147353454E-16, -1.000000000000000000 ) ) ;
#201 = DIRECTION ( 'NONE',  ( 0.0000000000000000000, 0.0000000000000000000, 1.000000000000000000 ) ) ;
#202 = VERTEX_POINT ( 'NONE', #182 ) ;
#203 = PERSON_AND_ORGANIZATION ( #290, #197 ) ;
#204 = ORIENTED_EDGE ( 'NONE', *, *, #168, .F. ) ;
#205 = EDGE_CURVE ( 'NONE', #45, #45, #295, .T. ) ;
#206 = COORDINATED_UNIVERSAL_TIME_OFFSET ( 1, 0, .AHEAD. ) ;
#207 = ORIENTED_EDGE ( 'NONE', *, *, #21, .T. ) ;
#208 = CLOSED_SHELL ( 'NONE', ( #234, #281, #183, #44 ) ) ;
#209 = CIRCLE ( 'NONE', #114, 1.049999999999999156 ) ;
#210 = CARTESIAN_POINT ( 'NONE',  ( 3.491481338843133355E-14, 9.474732426966270576E-33, 10.00000000000000000 ) ) ;
#211 = AXIS2_PLACEMENT_3D ( 'NONE', #128, #103, #239 ) ;
#212 = CARTESIAN_POINT ( 'NONE',  ( 0.0000000000000000000, 0.0000000000000000000, 0.0000000000000000000 ) ) ;
#213 = EDGE_LOOP ( 'NONE', ( #192 ) ) ;
#214 = DIRECTION ( 'NONE',  ( -4.275831445896959482E-31, -1.000000000000000000, -1.224646799147353454E-16 ) ) ;
#215 = ADVANCED_FACE ( 'NONE', ( #55 ), #74, .F. ) ;
#216 = DIRECTION ( 'NONE',  ( -3.491481338843133355E-15, 1.224646799147353454E-16, -1.000000000000000000 ) ) ;
#217 = CC_DESIGN_DATE_AND_TIME_ASSIGNMENT ( #282, #69, ( #251 ) ) ;
#218 = CYLINDRICAL_SURFACE ( 'NONE', #85, 1.263499999999999401 ) ;
#219 = CARTESIAN_POINT ( 'NONE',  ( 0.0000000000000000000, 0.0000000000000000000, 0.0000000000000000000 ) ) ;
#220 = DIRECTION ( 'NONE',  ( 3.491481338843133355E-15, -1.224646799147353454E-16, 1.000000000000000000 ) ) ;
#221 = EDGE_CURVE ( 'NONE', #40, #40, #67, .T. ) ;
#222 = FACE_OUTER_BOUND ( 'NONE', #213, .T. ) ;
#223 = CARTESIAN_POINT ( 'NONE',  ( 3.491481338843133355E-14, 1.263499999999998735, 10.00000000000000000 ) ) ;
#224 = DIRECTION ( 'NONE',  ( -3.491481338843133355E-15, 1.224646799147353454E-16, -1.000000000000000000 ) ) ;
#225 = AXIS2_PLACEMENT_3D ( 'NONE', #188, #48, #286 ) ;
#226 = DIRECTION ( 'NONE',  ( -3.491481338843133355E-15, 1.224646799147353454E-16, -1.000000000000000000 ) ) ;
#227 = AXIS2_PLACEMENT_3D ( 'NONE', #249, #224, #250 ) ;
#228 = DATE_AND_TIME ( #170, #77 ) ;
#229 = ORIENTED_EDGE ( 'NONE', *, *, #151, .T. ) ;
#230 = APPROVAL_STATUS ( 'not_yet_approved' ) ;
#231 = EDGE_LOOP ( 'NONE', ( #100 ) ) ;
#232 = CIRCLE ( 'NONE', #268, 1.200000000000001510 ) ;
#233 = ORIENTED_EDGE ( 'NONE', *, *, #109, .T. ) ;
#234 = ADVANCED_FACE ( 'NONE', ( #269 ), #294, .F. ) ;
#235 = APPROVAL_ROLE ( '' ) ;
#236 = DIRECTION ( 'NONE',  ( 0.0000000000000000000, 1.000000000000000000, 0.0000000000000000000 ) ) ;
#237 = ADVANCED_BREP_SHAPE_REPRESENTATION ( '200143', ( #238, #140, #136 ), #126 ) ;
#238 = MANIFOLD_SOLID_BREP ( 'Corps-Déplacer/Copier1[1]', #256 ) ;
#239 = DIRECTION ( 'NONE',  ( 4.275831445896959482E-31, 1.000000000000000000, 1.224646799147353454E-16 ) ) ;
#240 = CARTESIAN_POINT ( 'NONE',  ( 2.129803616694311221E-13, 8.998558695971049855E-33, 61.00000000000000000 ) ) ;
#241 = AXIS2_PLACEMENT_3D ( 'NONE', #111, #84, #301 ) ;
#242 = DIRECTION ( 'NONE',  ( 0.0000000000000000000, -1.000000000000000000, 0.0000000000000000000 ) ) ;
#243 = DIRECTION ( 'NONE',  ( 4.275831445896959482E-31, 1.000000000000000000, 1.224646799147353454E-16 ) ) ;
#244 = FACE_OUTER_BOUND ( 'NONE', #120, .T. ) ;
#245 = AXIS2_PLACEMENT_3D ( 'NONE', #219, #153, #247 ) ;
#246 = EDGE_LOOP ( 'NONE', ( #52 ) ) ;
#247 = DIRECTION ( 'NONE',  ( 4.275831445896959482E-31, 1.000000000000000000, 1.224646799147353207E-16 ) ) ;
#248 = CARTESIAN_POINT ( 'NONE',  ( 2.119329172677781757E-13, -7.433606070824434221E-15, 60.69999999999999574 ) ) ;
#249 = CARTESIAN_POINT ( 'NONE',  ( 7.104220552055901835E-14, -2.491825135286220620E-15, 20.34729635533384595 ) ) ;
#250 = DIRECTION ( 'NONE',  ( 0.0000000000000000000, 1.000000000000000000, 0.0000000000000000000 ) ) ;
#251 = SECURITY_CLASSIFICATION ( '', '', #167 ) ;
#252 = APPLICATION_CONTEXT ( 'configuration controlled 3d designs of mechanical parts and assemblies' ) ;
#253 = CARTESIAN_POINT ( 'NONE',  ( 3.491481338843133355E-14, 1.263499999999998735, 10.00000000000000000 ) ) ;
#254 = PERSON_AND_ORGANIZATION_ROLE ( 'creator' ) ;
#255 = ORIENTED_EDGE ( 'NONE', *, *, #279, .T. ) ;
#256 = CLOSED_SHELL ( 'NONE', ( #14, #257, #263, #186, #190, #26, #97, #215 ) ) ;
#257 = ADVANCED_FACE ( 'NONE', ( #244, #37 ), #154, .T. ) ;
#258 = APPROVAL_DATE_TIME ( #122, #22 ) ;
#259 = EDGE_LOOP ( 'NONE', ( #49 ) ) ;
#260 = UNCERTAINTY_MEASURE_WITH_UNIT (LENGTH_MEASURE( 1.000000000000000082E-05 ), #133, 'distance_accuracy_value', 'NONE');
#261 = DIRECTION ( 'NONE',  ( 4.275831445896959482E-31, 1.000000000000000000, 1.224646799147353700E-16 ) ) ;
#262 = ORIENTED_EDGE ( 'NONE', *, *, #298, .F. ) ;
#263 = ADVANCED_FACE ( 'NONE', ( #293, #75 ), #13, .T. ) ;
#264 = PERSON_AND_ORGANIZATION_ROLE ( 'creator' ) ;
#265 = EDGE_LOOP ( 'NONE', ( #142 ) ) ;
#266 = AXIS2_PLACEMENT_3D ( 'NONE', #56, #59, #214 ) ;
#267 = DIRECTION ( 'NONE',  ( -3.491481338843133355E-15, 1.224646799147353454E-16, -1.000000000000000000 ) ) ;
#268 = AXIS2_PLACEMENT_3D ( 'NONE', #139, #226, #68 ) ;
#269 = FACE_OUTER_BOUND ( 'NONE', #10, .T. ) ;
#270 = APPROVAL_PERSON_ORGANIZATION ( #117, #179, #235 ) ;
#271 = DIRECTION ( 'NONE',  ( 4.275831445896959482E-31, 1.000000000000000000, 1.224646799147353454E-16 ) ) ;
#272 = DIRECTION ( 'NONE',  ( -3.491481338843133355E-15, 1.224646799147353454E-16, -1.000000000000000000 ) ) ;
#273 = DIRECTION ( 'NONE',  ( 1.000000000000000000, 0.0000000000000000000, 0.0000000000000000000 ) ) ;
#274 = CARTESIAN_POINT ( 'NONE',  ( 2.119329172677781757E-13, 1.499999999999994005, 60.69999999999999574 ) ) ;
#275 = EDGE_CURVE ( 'NONE', #299, #299, #159, .T. ) ;
#276 = PERSON_AND_ORGANIZATION ( #290, #197 ) ;
#277 = CC_DESIGN_PERSON_AND_ORGANIZATION_ASSIGNMENT ( #6, #264, ( #19 ) ) ;
#278 = VERTEX_POINT ( 'NONE', #158 ) ;
#279 = EDGE_CURVE ( 'NONE', #202, #202, #101, .T. ) ;
#280 = DATE_AND_TIME ( #4, #198 ) ;
#281 = ADVANCED_FACE ( 'NONE', ( #60, #222 ), #92, .T. ) ;
#282 = DATE_AND_TIME ( #65, #121 ) ;
#283 = APPLICATION_CONTEXT ( 'configuration controlled 3d designs of mechanical parts and assemblies' ) ;
#284 = CALENDAR_DATE ( 2021, 30, 11 ) ;
#285 = AXIS2_PLACEMENT_3D ( 'NONE', #174, #216, #127 ) ;
#286 = DIRECTION ( 'NONE',  ( -4.275831445896959482E-31, -1.000000000000000000, -1.224646799147353454E-16 ) ) ;
#287 = CC_DESIGN_APPROVAL ( #189, ( #19 ) ) ;
#288 = EDGE_LOOP ( 'NONE', ( #132 ) ) ;
#289 = DIRECTION ( 'NONE',  ( -4.275831445896959482E-31, -1.000000000000000000, -1.224646799147353454E-16 ) ) ;
#290 = PERSON ( 'UNSPECIFIED', 'UNSPECIFIED', 'UNSPECIFIED', ('UNSPECIFIED'), ('UNSPECIFIED'), ('UNSPECIFIED') ) ;
#291 = DIRECTION ( 'NONE',  ( -3.491481338843133355E-15, 1.224646799147353454E-16, -1.000000000000000000 ) ) ;
#292 = PRODUCT_DEFINITION ( 'UNKNOWN', '', #19, #8 ) ;
#293 = FACE_OUTER_BOUND ( 'NONE', #259, .T. ) ;
#294 = PLANE ( 'NONE',  #266 ) ;
#295 = CIRCLE ( 'NONE', #211, 1.119162432702594634 ) ;
#296 = CC_DESIGN_APPROVAL ( #179, ( #251 ) ) ;
#297 = DIRECTION ( 'NONE',  ( 4.275831445896959482E-31, 1.000000000000000000, 1.224646799147353454E-16 ) ) ;
#298 = EDGE_CURVE ( 'NONE', #41, #41, #31, .T. ) ;
#299 = VERTEX_POINT ( 'NONE', #156 ) ;
#300 = PRODUCT_RELATED_PRODUCT_CATEGORY ( 'detail', '', ( #113 ) ) ;
#301 = DIRECTION ( 'NONE',  ( 0.0000000000000000000, 1.000000000000000000, 0.0000000000000000000 ) ) ;
#302 = LOCAL_TIME ( 10, 1, 40.00000000000000000, #163 ) ;
#303 = CARTESIAN_POINT ( 'NONE',  ( 2.129803616694311221E-13, 1.199999999999993960, 61.00000000000000000 ) ) ;
ENDSEC;
END-ISO-10303-21;
