ISO-10303-21;
HEADER;
FILE_DESCRIPTION (( 'STEP AP203' ),
    '1' );
FILE_NAME ('200142.step',
    '2021-11-30T09:01:40',
    ( '' ),
    ( '' ),
    'SwSTEP 2.0',
    'SolidWorks 2019',
    '' );
FILE_SCHEMA (( 'CONFIG_CONTROL_DESIGN' ));
ENDSEC;

DATA;
#1 = CLOSED_SHELL ( 'NONE', ( #259, #88, #240, #258 ) ) ;
#2 = CONICAL_SURFACE ( 'NONE', #274, 1.499999999999995559, 0.1745329251994266473 ) ;
#3 = EDGE_LOOP ( 'NONE', ( #241 ) ) ;
#4 = CARTESIAN_POINT ( 'NONE',  ( 7.104220552055901835E-14, -2.491825135286220620E-15, 20.34729635533384595 ) ) ;
#5 = ORIENTED_EDGE ( 'NONE', *, *, #199, .F. ) ;
#6 = CARTESIAN_POINT ( 'NONE',  ( 2.129803616694311221E-13, 1.199999999999993960, 61.00000000000000000 ) ) ;
#7 = CIRCLE ( 'NONE', #187, 1.114162432702594296 ) ;
#8 = EDGE_LOOP ( 'NONE', ( #293 ) ) ;
#9 = ORIENTED_EDGE ( 'NONE', *, *, #172, .T. ) ;
#10 = CARTESIAN_POINT ( 'NONE',  ( 0.0000000000000000000, 0.0000000000000000000, 0.0000000000000000000 ) ) ;
#11 = CLOSED_SHELL ( 'NONE', ( #197, #74, #95, #22, #71, #157, #121, #103 ) ) ;
#12 = FACE_OUTER_BOUND ( 'NONE', #213, .T. ) ;
#13 = APPROVAL_DATE_TIME ( #66, #47 ) ;
#14 = FACE_OUTER_BOUND ( 'NONE', #189, .T. ) ;
#15 = DATE_TIME_ROLE ( 'creation_date' ) ;
#16 = DIRECTION ( 'NONE',  ( 4.591012978277087327E-31, 1.000000000000000000, 1.292255271138862596E-16 ) ) ;
#17 = CONICAL_SURFACE ( 'NONE', #171, 1.200000000000001510, 0.7853981633974453924 ) ;
#18 = APPROVAL_PERSON_ORGANIZATION ( #203, #45, #298 ) ;
#19 = FACE_OUTER_BOUND ( 'NONE', #8, .T. ) ;
#20 = APPROVAL ( #147, 'UNSPECIFIED' ) ;
#21 = DIRECTION ( 'NONE',  ( -3.491481338843133355E-15, 1.224646799147353454E-16, -1.000000000000000000 ) ) ;
#22 = ADVANCED_FACE ( 'NONE', ( #122, #261 ), #191, .F. ) ;
#23 = LOCAL_TIME ( 10, 1, 40.00000000000000000, #136 ) ;
#24 = ORIENTED_EDGE ( 'NONE', *, *, #117, .T. ) ;
#25 = EDGE_CURVE ( 'NONE', #217, #217, #144, .T. ) ;
#26 = DIRECTION ( 'NONE',  ( 4.275831445896959482E-31, 1.000000000000000000, 1.224646799147353454E-16 ) ) ;
#27 = CARTESIAN_POINT ( 'NONE',  ( 2.129803616694311221E-13, -7.470345474798856659E-15, 61.00000000000000000 ) ) ;
#28 = DIRECTION ( 'NONE',  ( 3.491481338843133355E-15, -1.224646799147353454E-16, 1.000000000000000000 ) ) ;
#29 = AXIS2_PLACEMENT_3D ( 'NONE', #161, #202, #181 ) ;
#30 = EDGE_LOOP ( 'NONE', ( #9 ) ) ;
#31 = APPROVAL_PERSON_ORGANIZATION ( #196, #20, #155 ) ;
#32 = DIRECTION ( 'NONE',  ( 0.0000000000000000000, 1.000000000000000000, 0.0000000000000000000 ) ) ;
#33 = PERSON_AND_ORGANIZATION ( #225, #119 ) ;
#34 = DIRECTION ( 'NONE',  ( -3.491481338843133355E-15, 1.224646799147353454E-16, -1.000000000000000000 ) ) ;
#35 = PLANE ( 'NONE',  #36 ) ;
#36 = AXIS2_PLACEMENT_3D ( 'NONE', #220, #159, #223 ) ;
#37 = APPROVAL_STATUS ( 'not_yet_approved' ) ;
#38 = CC_DESIGN_PERSON_AND_ORGANIZATION_ASSIGNMENT ( #33, #102, ( #51 ) ) ;
#39 = FACE_BOUND ( 'NONE', #56, .T. ) ;
#40 = DIRECTION ( 'NONE',  ( 0.0000000000000000000, 1.000000000000000000, 0.0000000000000000000 ) ) ;
#41 = DATE_AND_TIME ( #43, #101 ) ;
#42 = DIRECTION ( 'NONE',  ( 4.275831445896960358E-31, 1.000000000000000000, 1.224646799147353700E-16 ) ) ;
#43 = CALENDAR_DATE ( 2021, 30, 11 ) ;
#44 = DIRECTION ( 'NONE',  ( 3.491481338843133355E-15, -1.224646799147353454E-16, 1.000000000000000000 ) ) ;
#45 = APPROVAL ( #270, 'UNSPECIFIED' ) ;
#46 = PRODUCT_DEFINITION_SHAPE ( 'NONE', 'NONE',  #98 ) ;
#47 = APPROVAL ( #37, 'UNSPECIFIED' ) ;
#48 = EDGE_CURVE ( 'NONE', #245, #245, #255, .T. ) ;
#49 = EDGE_LOOP ( 'NONE', ( #5 ) ) ;
#50 = VERTEX_POINT ( 'NONE', #57 ) ;
#51 = PRODUCT ( '200142', '200142', '', ( #86 ) ) ;
#52 = CIRCLE ( 'NONE', #97, 1.200000000000001510 ) ;
#53 = CARTESIAN_POINT ( 'NONE',  ( 6.982962677686266711E-14, -2.602085213965210642E-15, 20.00000000000000000 ) ) ;
#54 = VERTEX_POINT ( 'NONE', #242 ) ;
#55 = FACE_OUTER_BOUND ( 'NONE', #126, .T. ) ;
#56 = EDGE_LOOP ( 'NONE', ( #87 ) ) ;
#57 = CARTESIAN_POINT ( 'NONE',  ( 3.617570109905905727E-14, 1.049999999999997824, 10.36113259337811776 ) ) ;
#58 = AXIS2_PLACEMENT_3D ( 'NONE', #104, #89, #63 ) ;
#59 = EDGE_LOOP ( 'NONE', ( #149 ) ) ;
#60 = PLANE ( 'NONE',  #299 ) ;
#61 = ADVANCED_BREP_SHAPE_REPRESENTATION ( '200142', ( #286, #90, #192 ), #256 ) ;
#62 = DIRECTION ( 'NONE',  ( -3.491481338843133355E-15, 1.224646799147353454E-16, -1.000000000000000000 ) ) ;
#63 = DIRECTION ( 'NONE',  ( -4.275831445896959482E-31, -1.000000000000000000, -1.224646799147353454E-16 ) ) ;
#64 = PERSON_AND_ORGANIZATION_ROLE ( 'creator' ) ;
#65 = CYLINDRICAL_SURFACE ( 'NONE', #209, 1.049999999999999822 ) ;
#66 = DATE_AND_TIME ( #182, #235 ) ;
#67 = SECURITY_CLASSIFICATION ( '', '', #107 ) ;
#68 = CYLINDRICAL_SURFACE ( 'NONE', #204, 1.499999999999998224 ) ;
#69 = DIRECTION ( 'NONE',  ( -3.491481338843133355E-15, 1.224646799147353454E-16, -1.000000000000000000 ) ) ;
#70 = COORDINATED_UNIVERSAL_TIME_OFFSET ( 1, 0, .AHEAD. ) ;
#71 = ADVANCED_FACE ( 'NONE', ( #94, #111 ), #2, .T. ) ;
#72 = CYLINDRICAL_SURFACE ( 'NONE', #281, 1.258499999999999286 ) ;
#73 = AXIS2_PLACEMENT_3D ( 'NONE', #156, #106, #271 ) ;
#74 = ADVANCED_FACE ( 'NONE', ( #133, #39 ), #132, .T. ) ;
#75 = LOCAL_TIME ( 10, 1, 40.00000000000000000, #70 ) ;
#76 = ORIENTED_EDGE ( 'NONE', *, *, #48, .F. ) ;
#77 =( LENGTH_UNIT ( ) NAMED_UNIT ( * ) SI_UNIT ( .MILLI., .METRE. ) );
#78 = CONICAL_SURFACE ( 'NONE', #73, 1.258499999999998620, 0.5235987755982918213 ) ;
#79 = CC_DESIGN_APPROVAL ( #47, ( #164 ) ) ;
#80 = CARTESIAN_POINT ( 'NONE',  ( 6.982962677686266711E-14, -2.449293598294706907E-15, 20.00000000000000000 ) ) ;
#81 = CARTESIAN_POINT ( 'NONE',  ( 8.728703347107833388E-16, 1.258499999999998620, 0.2500000000000000000 ) ) ;
#82 = EDGE_LOOP ( 'NONE', ( #265 ) ) ;
#83 = CC_DESIGN_PERSON_AND_ORGANIZATION_ASSIGNMENT ( #92, #177, ( #67 ) ) ;
#84 = VERTEX_POINT ( 'NONE', #125 ) ;
#85 = EDGE_CURVE ( 'NONE', #50, #50, #243, .T. ) ;
#86 = MECHANICAL_CONTEXT ( 'NONE', #186, 'mechanical' ) ;
#87 = ORIENTED_EDGE ( 'NONE', *, *, #85, .T. ) ;
#88 = ADVANCED_FACE ( 'NONE', ( #174, #12 ), #78, .T. ) ;
#89 = DIRECTION ( 'NONE',  ( 3.491481338843133355E-15, -1.224646799147353454E-16, 1.000000000000000000 ) ) ;
#90 = MANIFOLD_SOLID_BREP ( 'Corps-Déplacer/Copier1[2]', #1 ) ;
#91 = FACE_OUTER_BOUND ( 'NONE', #49, .T. ) ;
#92 = PERSON_AND_ORGANIZATION ( #225, #119 ) ;
#93 = CARTESIAN_POINT ( 'NONE',  ( 8.728703347107827472E-16, -3.061616997868381785E-17, 0.2499999999999998335 ) ) ;
#94 = FACE_BOUND ( 'NONE', #173, .T. ) ;
#95 = ADVANCED_FACE ( 'NONE', ( #207, #19 ), #65, .T. ) ;
#96 = DIRECTION ( 'NONE',  ( 3.491481338843133355E-15, -1.224646799147353454E-16, 1.000000000000000000 ) ) ;
#97 = AXIS2_PLACEMENT_3D ( 'NONE', #27, #130, #285 ) ;
#98 = PRODUCT_DEFINITION ( 'UNKNOWN', '', #164, #185 ) ;
#99 = ORIENTED_EDGE ( 'NONE', *, *, #48, .T. ) ;
#100 = ORIENTED_EDGE ( 'NONE', *, *, #283, .T. ) ;
#101 = LOCAL_TIME ( 10, 1, 40.00000000000000000, #295 ) ;
#102 = PERSON_AND_ORGANIZATION_ROLE ( 'design_owner' ) ;
#103 = ADVANCED_FACE ( 'NONE', ( #138 ), #35, .F. ) ;
#104 = CARTESIAN_POINT ( 'NONE',  ( 3.491481338843133355E-14, 9.437238432399722494E-33, 10.00000000000000000 ) ) ;
#105 = DATE_AND_TIME ( #249, #152 ) ;
#106 = DIRECTION ( 'NONE',  ( 3.491481338843133355E-15, -1.224646799147353454E-16, 1.000000000000000000 ) ) ;
#107 = SECURITY_CLASSIFICATION_LEVEL ( 'unclassified' ) ;
#108 = APPLICATION_CONTEXT ( 'configuration controlled 3d designs of mechanical parts and assemblies' ) ;
#109 = DIRECTION ( 'NONE',  ( 4.275831445896959482E-31, 1.000000000000000000, 1.224646799147353207E-16 ) ) ;
#110 = PERSON_AND_ORGANIZATION ( #225, #119 ) ;
#111 = FACE_OUTER_BOUND ( 'NONE', #124, .T. ) ;
#112 = CIRCLE ( 'NONE', #151, 1.258499999999999952 ) ;
#113 = PERSON_AND_ORGANIZATION ( #225, #119 ) ;
#114 = DIRECTION ( 'NONE',  ( -3.491481338843133355E-15, 1.224646799147353454E-16, -1.000000000000000000 ) ) ;
#115 = CALENDAR_DATE ( 2021, 30, 11 ) ;
#116 = DIRECTION ( 'NONE',  ( -3.491481338843133355E-15, 1.224646799147353454E-16, -1.000000000000000000 ) ) ;
#117 = EDGE_CURVE ( 'NONE', #212, #212, #112, .T. ) ;
#118 = CIRCLE ( 'NONE', #250, 1.258499999999998620 ) ;
#119 = ORGANIZATION ( 'UNSPECIFIED', 'UNSPECIFIED', '' ) ;
#120 = EDGE_LOOP ( 'NONE', ( #238 ) ) ;
#121 = ADVANCED_FACE ( 'NONE', ( #14, #275 ), #17, .T. ) ;
#122 = FACE_OUTER_BOUND ( 'NONE', #143, .T. ) ;
#123 = CARTESIAN_POINT ( 'NONE',  ( -3.785471652766322713E-31, 1.114162432702594296, -1.084202172485504434E-16 ) ) ;
#124 = EDGE_LOOP ( 'NONE', ( #284 ) ) ;
#125 = CARTESIAN_POINT ( 'NONE',  ( 2.119329172677781757E-13, 1.499999999999994005, 60.69999999999999574 ) ) ;
#126 = EDGE_LOOP ( 'NONE', ( #267 ) ) ;
#127 = VERTEX_POINT ( 'NONE', #6 ) ;
#128 = CC_DESIGN_PERSON_AND_ORGANIZATION_ASSIGNMENT ( #160, #252, ( #164 ) ) ;
#129 = EDGE_LOOP ( 'NONE', ( #99 ) ) ;
#130 = DIRECTION ( 'NONE',  ( -3.491481338843133355E-15, 1.224646799147353454E-16, -1.000000000000000000 ) ) ;
#131 = PLANE ( 'NONE',  #58 ) ;
#132 = CONICAL_SURFACE ( 'NONE', #29, 1.049999999999999156, 0.5235987755982924874 ) ;
#133 = FACE_OUTER_BOUND ( 'NONE', #195, .T. ) ;
#134 = AXIS2_PLACEMENT_3D ( 'NONE', #248, #116, #163 ) ;
#135 = APPROVAL_DATE_TIME ( #105, #20 ) ;
#136 = COORDINATED_UNIVERSAL_TIME_OFFSET ( 1, 0, .AHEAD. ) ;
#137 = EDGE_CURVE ( 'NONE', #150, #150, #118, .T. ) ;
#138 = FACE_OUTER_BOUND ( 'NONE', #82, .T. ) ;
#139 = CARTESIAN_POINT ( 'NONE',  ( 3.617570109905905727E-14, -1.268872786602182946E-15, 10.36113259337811776 ) ) ;
#140 = FACE_OUTER_BOUND ( 'NONE', #236, .T. ) ;
#141 = AXIS2_PLACEMENT_3D ( 'NONE', #301, #62, #40 ) ;
#142 = CC_DESIGN_APPROVAL ( #45, ( #67 ) ) ;
#143 = EDGE_LOOP ( 'NONE', ( #193 ) ) ;
#144 = CIRCLE ( 'NONE', #215, 1.050000000000000266 ) ;
#145 = CC_DESIGN_SECURITY_CLASSIFICATION ( #67, ( #164 ) ) ;
#146 = DIRECTION ( 'NONE',  ( -3.491481338843133355E-15, 1.224646799147353454E-16, -1.000000000000000000 ) ) ;
#147 = APPROVAL_STATUS ( 'not_yet_approved' ) ;
#148 = ORIENTED_EDGE ( 'NONE', *, *, #117, .F. ) ;
#149 = ORIENTED_EDGE ( 'NONE', *, *, #137, .F. ) ;
#150 = VERTEX_POINT ( 'NONE', #81 ) ;
#151 = AXIS2_PLACEMENT_3D ( 'NONE', #226, #294, #162 ) ;
#152 = LOCAL_TIME ( 10, 1, 40.00000000000000000, #224 ) ;
#153 = DIRECTION ( 'NONE',  ( -3.491481338843133355E-15, 1.224646799147353454E-16, -1.000000000000000000 ) ) ;
#154 = CARTESIAN_POINT ( 'NONE',  ( 0.0000000000000000000, 0.0000000000000000000, 0.0000000000000000000 ) ) ;
#155 = APPROVAL_ROLE ( '' ) ;
#156 = CARTESIAN_POINT ( 'NONE',  ( 8.728703347107827472E-16, -3.061616997868381785E-17, 0.2499999999999998335 ) ) ;
#157 = ADVANCED_FACE ( 'NONE', ( #91, #179 ), #68, .T. ) ;
#158 = CC_DESIGN_APPROVAL ( #20, ( #98 ) ) ;
#159 = DIRECTION ( 'NONE',  ( -3.491481338843133355E-15, 1.224646799147353454E-16, -1.000000000000000000 ) ) ;
#160 = PERSON_AND_ORGANIZATION ( #225, #119 ) ;
#161 = CARTESIAN_POINT ( 'NONE',  ( 3.617570109905905727E-14, -1.268872786602182946E-15, 10.36113259337811776 ) ) ;
#162 = DIRECTION ( 'NONE',  ( 0.0000000000000000000, 1.000000000000000000, 0.0000000000000000000 ) ) ;
#163 = DIRECTION ( 'NONE',  ( 0.0000000000000000000, 1.000000000000000000, 0.0000000000000000000 ) ) ;
#164 = PRODUCT_DEFINITION_FORMATION_WITH_SPECIFIED_SOURCE ( 'ANY', '', #51, .NOT_KNOWN. ) ;
#165 = CIRCLE ( 'NONE', #287, 1.080384493975580451 ) ;
#166 = CARTESIAN_POINT ( 'NONE',  ( 6.982962677686266711E-14, 1.049999999999998046, 20.00000000000000000 ) ) ;
#167 = CC_DESIGN_PERSON_AND_ORGANIZATION_ASSIGNMENT ( #110, #247, ( #164 ) ) ;
#168 = DIRECTION ( 'NONE',  ( -3.491481338843133355E-15, 1.224646799147353454E-16, -1.000000000000000000 ) ) ;
#169 = CARTESIAN_POINT ( 'NONE',  ( 3.491481338843133355E-14, 1.258499999999998620, 10.00000000000000000 ) ) ;
#170 = ORIENTED_EDGE ( 'NONE', *, *, #172, .F. ) ;
#171 = AXIS2_PLACEMENT_3D ( 'NONE', #200, #272, #296 ) ;
#172 = EDGE_CURVE ( 'NONE', #84, #84, #260, .T. ) ;
#173 = EDGE_LOOP ( 'NONE', ( #218 ) ) ;
#174 = FACE_BOUND ( 'NONE', #120, .T. ) ;
#175 = EDGE_CURVE ( 'NONE', #214, #214, #7, .T. ) ;
#176 = DIRECTION ( 'NONE',  ( 0.0000000000000000000, 1.000000000000000000, 0.0000000000000000000 ) ) ;
#177 = PERSON_AND_ORGANIZATION_ROLE ( 'classification_officer' ) ;
#178 = CIRCLE ( 'NONE', #134, 1.499999999999995559 ) ;
#179 = FACE_OUTER_BOUND ( 'NONE', #30, .T. ) ;
#180 = CALENDAR_DATE ( 2021, 30, 11 ) ;
#181 = DIRECTION ( 'NONE',  ( 0.0000000000000000000, 1.000000000000000000, 0.0000000000000000000 ) ) ;
#182 = CALENDAR_DATE ( 2021, 30, 11 ) ;
#183 = PLANE ( 'NONE',  #216 ) ;
#184 = AXIS2_PLACEMENT_3D ( 'NONE', #221, #114, #269 ) ;
#185 = DESIGN_CONTEXT ( 'detailed design', #108, 'design' ) ;
#186 = APPLICATION_CONTEXT ( 'configuration controlled 3d designs of mechanical parts and assemblies' ) ;
#187 = AXIS2_PLACEMENT_3D ( 'NONE', #246, #300, #42 ) ;
#188 = DIRECTION ( 'NONE',  ( 1.000000000000000000, 0.0000000000000000000, 0.0000000000000000000 ) ) ;
#189 = EDGE_LOOP ( 'NONE', ( #170 ) ) ;
#190 =( NAMED_UNIT ( * ) PLANE_ANGLE_UNIT ( ) SI_UNIT ( $, .RADIAN. ) );
#191 = TOROIDAL_SURFACE ( 'NONE', #228, 3.050000000000000711, 2.000000000000000000 ) ;
#192 = AXIS2_PLACEMENT_3D ( 'NONE', #234, #291, #188 ) ;
#193 = ORIENTED_EDGE ( 'NONE', *, *, #25, .F. ) ;
#194 = VERTEX_POINT ( 'NONE', #262 ) ;
#195 = EDGE_LOOP ( 'NONE', ( #76 ) ) ;
#196 = PERSON_AND_ORGANIZATION ( #225, #119 ) ;
#197 = ADVANCED_FACE ( 'NONE', ( #230 ), #131, .F. ) ;
#198 = CARTESIAN_POINT ( 'NONE',  ( 7.935108543721707958E-14, -2.783261411380038722E-15, 22.72705414587988315 ) ) ;
#199 = EDGE_CURVE ( 'NONE', #194, #194, #178, .T. ) ;
#200 = CARTESIAN_POINT ( 'NONE',  ( 2.129803616694311221E-13, -7.470345474798856659E-15, 61.00000000000000000 ) ) ;
#201 = DATE_AND_TIME ( #115, #75 ) ;
#202 = DIRECTION ( 'NONE',  ( -3.491481338843133355E-15, 1.224646799147353454E-16, -1.000000000000000000 ) ) ;
#203 = PERSON_AND_ORGANIZATION ( #225, #119 ) ;
#204 = AXIS2_PLACEMENT_3D ( 'NONE', #10, #69, #253 ) ;
#205 = APPROVAL_PERSON_ORGANIZATION ( #113, #47, #278 ) ;
#206 = DIRECTION ( 'NONE',  ( -3.491481338843133355E-15, 1.224646799147353454E-16, -1.000000000000000000 ) ) ;
#207 = FACE_OUTER_BOUND ( 'NONE', #233, .T. ) ;
#208 = FACE_OUTER_BOUND ( 'NONE', #59, .T. ) ;
#209 = AXIS2_PLACEMENT_3D ( 'NONE', #154, #34, #109 ) ;
#210 = ORIENTED_EDGE ( 'NONE', *, *, #85, .F. ) ;
#211 = APPLICATION_PROTOCOL_DEFINITION ( 'international standard', 'config_control_design', 1994, #108 ) ;
#212 = VERTEX_POINT ( 'NONE', #169 ) ;
#213 = EDGE_LOOP ( 'NONE', ( #288 ) ) ;
#214 = VERTEX_POINT ( 'NONE', #123 ) ;
#215 = AXIS2_PLACEMENT_3D ( 'NONE', #80, #168, #263 ) ;
#216 = AXIS2_PLACEMENT_3D ( 'NONE', #279, #44, #239 ) ;
#217 = VERTEX_POINT ( 'NONE', #166 ) ;
#218 = ORIENTED_EDGE ( 'NONE', *, *, #283, .F. ) ;
#219 = CARTESIAN_POINT ( 'NONE',  ( -4.274721209176565320E-31, 1.499370364041515180E-32, -1.224328814712482667E-16 ) ) ;
#220 = CARTESIAN_POINT ( 'NONE',  ( 2.129803616694311221E-13, 8.998558695971049855E-33, 61.00000000000000000 ) ) ;
#221 = CARTESIAN_POINT ( 'NONE',  ( 3.491481338843133355E-14, -1.224646799147353454E-15, 10.00000000000000000 ) ) ;
#222 = PERSON_AND_ORGANIZATION ( #225, #119 ) ;
#223 = DIRECTION ( 'NONE',  ( 4.275831445896959482E-31, 1.000000000000000000, 1.224646799147353454E-16 ) ) ;
#224 = COORDINATED_UNIVERSAL_TIME_OFFSET ( 1, 0, .AHEAD. ) ;
#225 = PERSON ( 'UNSPECIFIED', 'UNSPECIFIED', 'UNSPECIFIED', ('UNSPECIFIED'), ('UNSPECIFIED'), ('UNSPECIFIED') ) ;
#226 = CARTESIAN_POINT ( 'NONE',  ( 3.491481338843133355E-14, -1.224646799147353454E-15, 10.00000000000000000 ) ) ;
#227 = DATE_TIME_ROLE ( 'classification_date' ) ;
#228 = AXIS2_PLACEMENT_3D ( 'NONE', #53, #146, #26 ) ;
#229 = CC_DESIGN_DATE_AND_TIME_ASSIGNMENT ( #231, #15, ( #98 ) ) ;
#230 = FACE_OUTER_BOUND ( 'NONE', #129, .T. ) ;
#231 = DATE_AND_TIME ( #180, #23 ) ;
#232 = CARTESIAN_POINT ( 'NONE',  ( 0.0000000000000000000, 0.0000000000000000000, 0.0000000000000000000 ) ) ;
#233 = EDGE_LOOP ( 'NONE', ( #210 ) ) ;
#234 = CARTESIAN_POINT ( 'NONE',  ( 0.0000000000000000000, 0.0000000000000000000, 0.0000000000000000000 ) ) ;
#235 = LOCAL_TIME ( 10, 1, 40.00000000000000000, #276 ) ;
#236 = EDGE_LOOP ( 'NONE', ( #24 ) ) ;
#237 = CARTESIAN_POINT ( 'NONE',  ( 3.491481338843133355E-14, 1.258499999999998620, 10.00000000000000000 ) ) ;
#238 = ORIENTED_EDGE ( 'NONE', *, *, #175, .F. ) ;
#239 = DIRECTION ( 'NONE',  ( -4.275831445896959482E-31, -1.000000000000000000, -1.224646799147353454E-16 ) ) ;
#240 = ADVANCED_FACE ( 'NONE', ( #208, #140 ), #72, .T. ) ;
#241 = ORIENTED_EDGE ( 'NONE', *, *, #297, .T. ) ;
#242 = CARTESIAN_POINT ( 'NONE',  ( 7.104220552055901835E-14, 1.080384493975578009, 20.34729635533384595 ) ) ;
#243 = CIRCLE ( 'NONE', #268, 1.049999999999999156 ) ;
#244 = EDGE_LOOP ( 'NONE', ( #100 ) ) ;
#245 = VERTEX_POINT ( 'NONE', #237 ) ;
#246 = CARTESIAN_POINT ( 'NONE',  ( -8.549442418353130640E-31, 2.998740728083030359E-32, -2.448657629424965333E-16 ) ) ;
#247 = PERSON_AND_ORGANIZATION_ROLE ( 'design_supplier' ) ;
#248 = CARTESIAN_POINT ( 'NONE',  ( 7.935108543721707958E-14, -2.783261411380038722E-15, 22.72705414587988315 ) ) ;
#249 = CALENDAR_DATE ( 2021, 30, 11 ) ;
#250 = AXIS2_PLACEMENT_3D ( 'NONE', #93, #277, #16 ) ;
#251 = DIRECTION ( 'NONE',  ( 0.0000000000000000000, -1.000000000000000000, 0.0000000000000000000 ) ) ;
#252 = PERSON_AND_ORGANIZATION_ROLE ( 'creator' ) ;
#253 = DIRECTION ( 'NONE',  ( 4.275831445896959482E-31, 1.000000000000000000, 1.224646799147353700E-16 ) ) ;
#254 = APPROVAL_DATE_TIME ( #41, #45 ) ;
#255 = CIRCLE ( 'NONE', #184, 1.258499999999999952 ) ;
#256 =( GEOMETRIC_REPRESENTATION_CONTEXT ( 3 ) GLOBAL_UNCERTAINTY_ASSIGNED_CONTEXT ( ( #303 ) ) GLOBAL_UNIT_ASSIGNED_CONTEXT ( ( #77, #190, #264 ) ) REPRESENTATION_CONTEXT ( 'NONE', 'WORKASPACE' ) );
#257 = FACE_OUTER_BOUND ( 'NONE', #290, .T. ) ;
#258 = ADVANCED_FACE ( 'NONE', ( #257 ), #183, .T. ) ;
#259 = ADVANCED_FACE ( 'NONE', ( #55 ), #60, .F. ) ;
#260 = CIRCLE ( 'NONE', #141, 1.500000000000001332 ) ;
#261 = FACE_OUTER_BOUND ( 'NONE', #244, .T. ) ;
#262 = CARTESIAN_POINT ( 'NONE',  ( 7.935108543721707958E-14, 1.499999999999992673, 22.72705414587988315 ) ) ;
#263 = DIRECTION ( 'NONE',  ( 0.0000000000000000000, 1.000000000000000000, 0.0000000000000000000 ) ) ;
#264 =( NAMED_UNIT ( * ) SI_UNIT ( $, .STERADIAN. ) SOLID_ANGLE_UNIT ( ) );
#265 = ORIENTED_EDGE ( 'NONE', *, *, #297, .F. ) ;
#266 = DIRECTION ( 'NONE',  ( -4.275831445896959482E-31, -1.000000000000000000, -1.224646799147353454E-16 ) ) ;
#267 = ORIENTED_EDGE ( 'NONE', *, *, #175, .T. ) ;
#268 = AXIS2_PLACEMENT_3D ( 'NONE', #139, #206, #176 ) ;
#269 = DIRECTION ( 'NONE',  ( 0.0000000000000000000, 1.000000000000000000, 0.0000000000000000000 ) ) ;
#270 = APPROVAL_STATUS ( 'not_yet_approved' ) ;
#271 = DIRECTION ( 'NONE',  ( -4.591012978277087327E-31, -1.000000000000000000, -1.292255271138862596E-16 ) ) ;
#272 = DIRECTION ( 'NONE',  ( -3.491481338843133355E-15, 1.224646799147353454E-16, -1.000000000000000000 ) ) ;
#273 = SHAPE_DEFINITION_REPRESENTATION ( #46, #61 ) ;
#274 = AXIS2_PLACEMENT_3D ( 'NONE', #198, #96, #251 ) ;
#275 = FACE_BOUND ( 'NONE', #3, .T. ) ;
#276 = COORDINATED_UNIVERSAL_TIME_OFFSET ( 1, 0, .AHEAD. ) ;
#277 = DIRECTION ( 'NONE',  ( -3.491481338843133355E-15, 1.224646799147353454E-16, -1.000000000000000000 ) ) ;
#278 = APPROVAL_ROLE ( '' ) ;
#279 = CARTESIAN_POINT ( 'NONE',  ( 3.491481338843133355E-14, 9.437238432399722494E-33, 10.00000000000000000 ) ) ;
#280 = CC_DESIGN_DATE_AND_TIME_ASSIGNMENT ( #201, #227, ( #67 ) ) ;
#281 = AXIS2_PLACEMENT_3D ( 'NONE', #232, #21, #302 ) ;
#282 = PRODUCT_RELATED_PRODUCT_CATEGORY ( 'detail', '', ( #51 ) ) ;
#283 = EDGE_CURVE ( 'NONE', #54, #54, #165, .T. ) ;
#284 = ORIENTED_EDGE ( 'NONE', *, *, #199, .T. ) ;
#285 = DIRECTION ( 'NONE',  ( 0.0000000000000000000, 1.000000000000000000, 0.0000000000000000000 ) ) ;
#286 = MANIFOLD_SOLID_BREP ( 'Corps-Déplacer/Copier1[1]', #11 ) ;
#287 = AXIS2_PLACEMENT_3D ( 'NONE', #4, #153, #32 ) ;
#288 = ORIENTED_EDGE ( 'NONE', *, *, #137, .T. ) ;
#289 = APPLICATION_PROTOCOL_DEFINITION ( 'international standard', 'config_control_design', 1994, #186 ) ;
#290 = EDGE_LOOP ( 'NONE', ( #148 ) ) ;
#291 = DIRECTION ( 'NONE',  ( 0.0000000000000000000, 0.0000000000000000000, 1.000000000000000000 ) ) ;
#292 = CC_DESIGN_PERSON_AND_ORGANIZATION_ASSIGNMENT ( #222, #64, ( #98 ) ) ;
#293 = ORIENTED_EDGE ( 'NONE', *, *, #25, .T. ) ;
#294 = DIRECTION ( 'NONE',  ( -3.491481338843133355E-15, 1.224646799147353454E-16, -1.000000000000000000 ) ) ;
#295 = COORDINATED_UNIVERSAL_TIME_OFFSET ( 1, 0, .AHEAD. ) ;
#296 = DIRECTION ( 'NONE',  ( 0.0000000000000000000, 1.000000000000000000, 0.0000000000000000000 ) ) ;
#297 = EDGE_CURVE ( 'NONE', #127, #127, #52, .T. ) ;
#298 = APPROVAL_ROLE ( '' ) ;
#299 = AXIS2_PLACEMENT_3D ( 'NONE', #219, #28, #266 ) ;
#300 = DIRECTION ( 'NONE',  ( -3.491481338843133355E-15, 1.224646799147353454E-16, -1.000000000000000000 ) ) ;
#301 = CARTESIAN_POINT ( 'NONE',  ( 2.119329172677781757E-13, -7.433606070824434221E-15, 60.69999999999999574 ) ) ;
#302 = DIRECTION ( 'NONE',  ( 4.275831445896959482E-31, 1.000000000000000000, 1.224646799147353454E-16 ) ) ;
#303 = UNCERTAINTY_MEASURE_WITH_UNIT (LENGTH_MEASURE( 1.000000000000000082E-05 ), #77, 'distance_accuracy_value', 'NONE');
ENDSEC;
END-ISO-10303-21;
