ISO-10303-21;
HEADER;
FILE_DESCRIPTION (( 'STEP AP203' ),
    '1' );
FILE_NAME ('200141.step',
    '2021-11-30T06:44:57',
    ( '' ),
    ( '' ),
    'SwSTEP 2.0',
    'SolidWorks 2019',
    '' );
FILE_SCHEMA (( 'CONFIG_CONTROL_DESIGN' ));
ENDSEC;

DATA;
#1 = CARTESIAN_POINT ( 'NONE',  ( 3.491481338843133355E-14, 1.248499999999993726, 10.00000000000000000 ) ) ;
#2 = AXIS2_PLACEMENT_3D ( 'NONE', #25, #206, #5 ) ;
#3 =( GEOMETRIC_REPRESENTATION_CONTEXT ( 3 ) GLOBAL_UNCERTAINTY_ASSIGNED_CONTEXT ( ( #276 ) ) GLOBAL_UNIT_ASSIGNED_CONTEXT ( ( #42, #67, #253 ) ) REPRESENTATION_CONTEXT ( 'NONE', 'WORKASPACE' ) );
#4 = CARTESIAN_POINT ( 'NONE',  ( 7.846003257839388371E-14, -2.752007484306480018E-15, 22.47184646399708896 ) ) ;
#5 = DIRECTION ( 'NONE',  ( 0.0000000000000000000, 1.000000000000000000, 0.0000000000000000000 ) ) ;
#6 = DIRECTION ( 'NONE',  ( -3.491481338843133355E-15, 1.224646799147353207E-16, -1.000000000000000000 ) ) ;
#7 = ORIENTED_EDGE ( 'NONE', *, *, #156, .F. ) ;
#8 = ORIENTED_EDGE ( 'NONE', *, *, #129, .T. ) ;
#9 = CC_DESIGN_SECURITY_CLASSIFICATION ( #266, ( #137 ) ) ;
#10 = ORIENTED_EDGE ( 'NONE', *, *, #168, .T. ) ;
#11 = ORIENTED_EDGE ( 'NONE', *, *, #156, .T. ) ;
#12 = PERSON_AND_ORGANIZATION ( #179, #110 ) ;
#13 = LOCAL_TIME ( 7, 44, 57.00000000000000000, #239 ) ;
#14 = DIRECTION ( 'NONE',  ( 0.0000000000000000000, 0.0000000000000000000, 1.000000000000000000 ) ) ;
#15 = PERSON_AND_ORGANIZATION_ROLE ( 'classification_officer' ) ;
#16 = CIRCLE ( 'NONE', #238, 1.248499999999995058 ) ;
#17 = FACE_OUTER_BOUND ( 'NONE', #288, .T. ) ;
#18 = CARTESIAN_POINT ( 'NONE',  ( -1.892735826383161356E-31, 1.104162432702589625, -5.421010862427522170E-17 ) ) ;
#19 = DIRECTION ( 'NONE',  ( 0.0000000000000000000, 1.000000000000000000, 0.0000000000000000000 ) ) ;
#20 = CARTESIAN_POINT ( 'NONE',  ( 8.728703347107835360E-16, 1.248499999999993726, 0.2500000000000000555 ) ) ;
#21 = ADVANCED_FACE ( 'NONE', ( #57 ), #221, .F. ) ;
#22 = DIRECTION ( 'NONE',  ( 0.0000000000000000000, 1.000000000000000000, 0.0000000000000000000 ) ) ;
#23 = AXIS2_PLACEMENT_3D ( 'NONE', #151, #153, #105 ) ;
#24 = VERTEX_POINT ( 'NONE', #154 ) ;
#25 = CARTESIAN_POINT ( 'NONE',  ( 1.735266225405037467E-13, -6.086494591762345225E-15, 49.70000000000000284 ) ) ;
#26 = CARTESIAN_POINT ( 'NONE',  ( 6.982962677686266711E-14, -2.449293598294706513E-15, 20.00000000000000000 ) ) ;
#27 = CYLINDRICAL_SURFACE ( 'NONE', #71, 1.094999999999999529 ) ;
#28 = APPROVAL ( #85, 'UNSPECIFIED' ) ;
#29 = EDGE_LOOP ( 'NONE', ( #236 ) ) ;
#30 = EDGE_LOOP ( 'NONE', ( #63 ) ) ;
#31 = PERSON_AND_ORGANIZATION ( #179, #110 ) ;
#32 = PERSON_AND_ORGANIZATION ( #179, #110 ) ;
#33 = EDGE_LOOP ( 'NONE', ( #241 ) ) ;
#34 = MECHANICAL_CONTEXT ( 'NONE', #72, 'mechanical' ) ;
#35 = EDGE_CURVE ( 'NONE', #24, #24, #90, .T. ) ;
#36 = CIRCLE ( 'NONE', #128, 1.094999999999998863 ) ;
#37 = FACE_OUTER_BOUND ( 'NONE', #284, .T. ) ;
#38 = CARTESIAN_POINT ( 'NONE',  ( 7.846003257839388371E-14, -2.752007484306480018E-15, 22.47184646399708896 ) ) ;
#39 = PLANE ( 'NONE',  #178 ) ;
#40 = VERTEX_POINT ( 'NONE', #196 ) ;
#41 = ADVANCED_FACE ( 'NONE', ( #17 ), #301, .F. ) ;
#42 =( LENGTH_UNIT ( ) NAMED_UNIT ( * ) SI_UNIT ( .MILLI., .METRE. ) );
#43 = FACE_BOUND ( 'NONE', #194, .T. ) ;
#44 = AXIS2_PLACEMENT_3D ( 'NONE', #38, #176, #297 ) ;
#45 = PRODUCT ( '200141', '200141', '', ( #34 ) ) ;
#46 = AXIS2_PLACEMENT_3D ( 'NONE', #225, #126, #202 ) ;
#47 = CARTESIAN_POINT ( 'NONE',  ( 8.728703347107829444E-16, -3.061616997868381785E-17, 0.2499999999999998890 ) ) ;
#48 = CC_DESIGN_APPROVAL ( #148, ( #137 ) ) ;
#49 = DIRECTION ( 'NONE',  ( -3.491481338843133355E-15, 1.224646799147353207E-16, -1.000000000000000000 ) ) ;
#50 = CC_DESIGN_PERSON_AND_ORGANIZATION_ASSIGNMENT ( #190, #80, ( #45 ) ) ;
#51 = FACE_OUTER_BOUND ( 'NONE', #94, .T. ) ;
#52 = ORIENTED_EDGE ( 'NONE', *, *, #232, .F. ) ;
#53 = PERSON_AND_ORGANIZATION ( #179, #110 ) ;
#54 = AXIS2_PLACEMENT_3D ( 'NONE', #227, #224, #22 ) ;
#55 = ORIENTED_EDGE ( 'NONE', *, *, #92, .F. ) ;
#56 = PERSON_AND_ORGANIZATION_ROLE ( 'creator' ) ;
#57 = FACE_OUTER_BOUND ( 'NONE', #30, .T. ) ;
#58 = COORDINATED_UNIVERSAL_TIME_OFFSET ( 1, 0, .AHEAD. ) ;
#59 = TOROIDAL_SURFACE ( 'NONE', #261, 3.095000000000000639, 2.000000000000000444 ) ;
#60 = CALENDAR_DATE ( 2021, 30, 11 ) ;
#61 = MANIFOLD_SOLID_BREP ( 'Corps-Déplacer/Copier1[2]', #95 ) ;
#62 = MANIFOLD_SOLID_BREP ( 'Corps-Déplacer/Copier1[1]', #124 ) ;
#63 = ORIENTED_EDGE ( 'NONE', *, *, #35, .F. ) ;
#64 = DIRECTION ( 'NONE',  ( 4.275831445896958607E-31, 1.000000000000000000, 1.224646799147353207E-16 ) ) ;
#65 = AXIS2_PLACEMENT_3D ( 'NONE', #258, #14, #262 ) ;
#66 = CARTESIAN_POINT ( 'NONE',  ( 7.104220552055901835E-14, -2.491825135286219831E-15, 20.34729635533384595 ) ) ;
#67 =( NAMED_UNIT ( * ) PLANE_ANGLE_UNIT ( ) SI_UNIT ( $, .RADIAN. ) );
#68 = DIRECTION ( 'NONE',  ( 0.0000000000000000000, 1.000000000000000000, 0.0000000000000000000 ) ) ;
#69 = FACE_OUTER_BOUND ( 'NONE', #116, .T. ) ;
#70 = CARTESIAN_POINT ( 'NONE',  ( 3.491481338843133355E-14, 1.248499999999993726, 10.00000000000000000 ) ) ;
#71 = AXIS2_PLACEMENT_3D ( 'NONE', #115, #113, #205 ) ;
#72 = APPLICATION_CONTEXT ( 'configuration controlled 3d designs of mechanical parts and assemblies' ) ;
#73 = DIRECTION ( 'NONE',  ( 4.275831445896958607E-31, 1.000000000000000000, 1.224646799147353454E-16 ) ) ;
#74 = CC_DESIGN_DATE_AND_TIME_ASSIGNMENT ( #82, #83, ( #121 ) ) ;
#75 = AXIS2_PLACEMENT_3D ( 'NONE', #47, #233, #76 ) ;
#76 = DIRECTION ( 'NONE',  ( 4.627785208779925499E-31, 1.000000000000000000, 1.302605733863247844E-16 ) ) ;
#77 = ORIENTED_EDGE ( 'NONE', *, *, #92, .T. ) ;
#78 = EDGE_LOOP ( 'NONE', ( #188 ) ) ;
#79 = EDGE_LOOP ( 'NONE', ( #161 ) ) ;
#80 = PERSON_AND_ORGANIZATION_ROLE ( 'design_owner' ) ;
#81 = ADVANCED_FACE ( 'NONE', ( #273, #195 ), #150, .T. ) ;
#82 = DATE_AND_TIME ( #293, #231 ) ;
#83 = DATE_TIME_ROLE ( 'creation_date' ) ;
#84 = CC_DESIGN_DATE_AND_TIME_ASSIGNMENT ( #125, #149, ( #266 ) ) ;
#85 = APPROVAL_STATUS ( 'not_yet_approved' ) ;
#86 = DIRECTION ( 'NONE',  ( -4.627785208779925499E-31, -1.000000000000000000, -1.302605733863247844E-16 ) ) ;
#87 = VERTEX_POINT ( 'NONE', #1 ) ;
#88 = DIRECTION ( 'NONE',  ( -4.275831445896958607E-31, -1.000000000000000000, -1.224646799147353207E-16 ) ) ;
#89 = CARTESIAN_POINT ( 'NONE',  ( 3.584309283006850024E-14, 1.094999999999997753, 10.26586979896181973 ) ) ;
#90 = CIRCLE ( 'NONE', #189, 1.200000000000001732 ) ;
#91 = EDGE_CURVE ( 'NONE', #252, #252, #112, .T. ) ;
#92 = EDGE_CURVE ( 'NONE', #40, #40, #226, .T. ) ;
#93 = DIRECTION ( 'NONE',  ( 0.0000000000000000000, 1.000000000000000000, 0.0000000000000000000 ) ) ;
#94 = EDGE_LOOP ( 'NONE', ( #234 ) ) ;
#95 = CLOSED_SHELL ( 'NONE', ( #41, #287, #229, #269 ) ) ;
#96 = APPROVAL_PERSON_ORGANIZATION ( #216, #148, #119 ) ;
#97 = ORIENTED_EDGE ( 'NONE', *, *, #91, .F. ) ;
#98 = EDGE_LOOP ( 'NONE', ( #170 ) ) ;
#99 = APPROVAL_DATE_TIME ( #165, #28 ) ;
#100 = AXIS2_PLACEMENT_3D ( 'NONE', #298, #106, #86 ) ;
#101 = APPROVAL_STATUS ( 'not_yet_approved' ) ;
#102 = ADVANCED_FACE ( 'NONE', ( #51, #182 ), #160, .T. ) ;
#103 = PERSON_AND_ORGANIZATION ( #179, #110 ) ;
#104 = CARTESIAN_POINT ( 'NONE',  ( -3.306974138755489090E-31, 1.159930385087456765E-32, -9.471550375953666009E-17 ) ) ;
#105 = DIRECTION ( 'NONE',  ( 0.0000000000000000000, 1.000000000000000000, 0.0000000000000000000 ) ) ;
#106 = DIRECTION ( 'NONE',  ( 3.491481338843133355E-15, -1.224646799147353207E-16, 1.000000000000000000 ) ) ;
#107 = DIRECTION ( 'NONE',  ( -4.275831445896958607E-31, -1.000000000000000000, -1.224646799147353207E-16 ) ) ;
#108 = CARTESIAN_POINT ( 'NONE',  ( 7.846003257839388371E-14, 1.499999999999994005, 22.47184646399708896 ) ) ;
#109 = CIRCLE ( 'NONE', #282, 1.499999999999996669 ) ;
#110 = ORGANIZATION ( 'UNSPECIFIED', 'UNSPECIFIED', '' ) ;
#111 = DIRECTION ( 'NONE',  ( 3.491481338843133355E-15, -1.224646799147353207E-16, 1.000000000000000000 ) ) ;
#112 = CIRCLE ( 'NONE', #289, 1.104162432702589625 ) ;
#113 = DIRECTION ( 'NONE',  ( -3.491481338843133355E-15, 1.224646799147353207E-16, -1.000000000000000000 ) ) ;
#114 = DIRECTION ( 'NONE',  ( -3.491481338843133355E-15, 1.224646799147353207E-16, -1.000000000000000000 ) ) ;
#115 = CARTESIAN_POINT ( 'NONE',  ( 0.0000000000000000000, 0.0000000000000000000, 0.0000000000000000000 ) ) ;
#116 = EDGE_LOOP ( 'NONE', ( #8 ) ) ;
#117 = ADVANCED_FACE ( 'NONE', ( #159, #138 ), #127, .T. ) ;
#118 = ORIENTED_EDGE ( 'NONE', *, *, #240, .T. ) ;
#119 = APPROVAL_ROLE ( '' ) ;
#120 = COORDINATED_UNIVERSAL_TIME_OFFSET ( 1, 0, .AHEAD. ) ;
#121 = PRODUCT_DEFINITION ( 'UNKNOWN', '', #137, #136 ) ;
#122 = APPROVAL_STATUS ( 'not_yet_approved' ) ;
#123 = PRODUCT_DEFINITION_SHAPE ( 'NONE', 'NONE',  #121 ) ;
#124 = CLOSED_SHELL ( 'NONE', ( #197, #117, #158, #296, #81, #102, #292, #21 ) ) ;
#125 = DATE_AND_TIME ( #244, #135 ) ;
#126 = DIRECTION ( 'NONE',  ( -3.491481338843133355E-15, 1.224646799147353207E-16, -1.000000000000000000 ) ) ;
#127 = CONICAL_SURFACE ( 'NONE', #143, 1.094999999999998863, 0.5235987755982941527 ) ;
#128 = AXIS2_PLACEMENT_3D ( 'NONE', #280, #303, #175 ) ;
#129 = EDGE_CURVE ( 'NONE', #131, #131, #193, .T. ) ;
#130 = CARTESIAN_POINT ( 'NONE',  ( 3.491481338843133355E-14, 9.362250443266590749E-33, 10.00000000000000000 ) ) ;
#131 = VERTEX_POINT ( 'NONE', #20 ) ;
#132 = CARTESIAN_POINT ( 'NONE',  ( 6.982962677686266711E-14, -2.602085213965210642E-15, 20.00000000000000000 ) ) ;
#133 = CC_DESIGN_PERSON_AND_ORGANIZATION_ASSIGNMENT ( #31, #248, ( #137 ) ) ;
#134 = FACE_OUTER_BOUND ( 'NONE', #139, .T. ) ;
#135 = LOCAL_TIME ( 7, 44, 57.00000000000000000, #120 ) ;
#136 = DESIGN_CONTEXT ( 'detailed design', #187, 'design' ) ;
#137 = PRODUCT_DEFINITION_FORMATION_WITH_SPECIFIED_SOURCE ( 'ANY', '', #45, .NOT_KNOWN. ) ;
#138 = FACE_BOUND ( 'NONE', #146, .T. ) ;
#139 = EDGE_LOOP ( 'NONE', ( #77 ) ) ;
#140 = CARTESIAN_POINT ( 'NONE',  ( 3.584309283006850024E-14, -1.257206458976207263E-15, 10.26586979896181973 ) ) ;
#141 = EDGE_LOOP ( 'NONE', ( #212 ) ) ;
#142 = ORIENTED_EDGE ( 'NONE', *, *, #91, .T. ) ;
#143 = AXIS2_PLACEMENT_3D ( 'NONE', #140, #6, #93 ) ;
#144 = APPROVAL_PERSON_ORGANIZATION ( #53, #302, #145 ) ;
#145 = APPROVAL_ROLE ( '' ) ;
#146 = EDGE_LOOP ( 'NONE', ( #118 ) ) ;
#147 = ADVANCED_BREP_SHAPE_REPRESENTATION ( '200141', ( #62, #61, #65 ), #3 ) ;
#148 = APPROVAL ( #101, 'UNSPECIFIED' ) ;
#149 = DATE_TIME_ROLE ( 'classification_date' ) ;
#150 = CONICAL_SURFACE ( 'NONE', #44, 1.499999999999996669, 0.1745329251994263420 ) ;
#151 = CARTESIAN_POINT ( 'NONE',  ( 3.491481338843133355E-14, -1.224646799147353256E-15, 10.00000000000000000 ) ) ;
#152 = AXIS2_PLACEMENT_3D ( 'NONE', #26, #114, #207 ) ;
#153 = DIRECTION ( 'NONE',  ( -3.491481338843133355E-15, 1.224646799147353207E-16, -1.000000000000000000 ) ) ;
#154 = CARTESIAN_POINT ( 'NONE',  ( 1.745740669421566678E-13, 1.199999999999995515, 50.00000000000000000 ) ) ;
#155 = CARTESIAN_POINT ( 'NONE',  ( -6.613948277510978179E-31, 2.319860770174913531E-32, -1.894310075190733202E-16 ) ) ;
#156 = EDGE_CURVE ( 'NONE', #249, #249, #265, .T. ) ;
#157 = VERTEX_POINT ( 'NONE', #173 ) ;
#158 = ADVANCED_FACE ( 'NONE', ( #281, #235 ), #27, .T. ) ;
#159 = FACE_OUTER_BOUND ( 'NONE', #79, .T. ) ;
#160 = CYLINDRICAL_SURFACE ( 'NONE', #214, 1.499999999999999112 ) ;
#161 = ORIENTED_EDGE ( 'NONE', *, *, #168, .F. ) ;
#162 = CALENDAR_DATE ( 2021, 30, 11 ) ;
#163 = SHAPE_DEFINITION_REPRESENTATION ( #123, #147 ) ;
#164 = PERSON_AND_ORGANIZATION ( #179, #110 ) ;
#165 = DATE_AND_TIME ( #247, #255 ) ;
#166 = AXIS2_PLACEMENT_3D ( 'NONE', #257, #49, #237 ) ;
#167 = EDGE_CURVE ( 'NONE', #300, #300, #109, .T. ) ;
#168 = EDGE_CURVE ( 'NONE', #87, #87, #16, .T. ) ;
#169 = DIRECTION ( 'NONE',  ( -3.491481338843133355E-15, 1.224646799147353207E-16, -1.000000000000000000 ) ) ;
#170 = ORIENTED_EDGE ( 'NONE', *, *, #129, .F. ) ;
#171 = FACE_OUTER_BOUND ( 'NONE', #210, .T. ) ;
#172 = DIRECTION ( 'NONE',  ( 0.0000000000000000000, 1.000000000000000000, 0.0000000000000000000 ) ) ;
#173 = CARTESIAN_POINT ( 'NONE',  ( 1.735266225405037467E-13, 1.499999999999995559, 49.70000000000000284 ) ) ;
#174 = DIRECTION ( 'NONE',  ( -3.491481338843133355E-15, 1.224646799147353207E-16, -1.000000000000000000 ) ) ;
#175 = DIRECTION ( 'NONE',  ( 0.0000000000000000000, 1.000000000000000000, 0.0000000000000000000 ) ) ;
#176 = DIRECTION ( 'NONE',  ( 3.491481338843133355E-15, -1.224646799147353207E-16, 1.000000000000000000 ) ) ;
#177 = VERTEX_POINT ( 'NONE', #70 ) ;
#178 = AXIS2_PLACEMENT_3D ( 'NONE', #130, #222, #107 ) ;
#179 = PERSON ( 'UNSPECIFIED', 'UNSPECIFIED', 'UNSPECIFIED', ('UNSPECIFIED'), ('UNSPECIFIED'), ('UNSPECIFIED') ) ;
#180 = CARTESIAN_POINT ( 'NONE',  ( 0.0000000000000000000, 0.0000000000000000000, 0.0000000000000000000 ) ) ;
#181 = FACE_OUTER_BOUND ( 'NONE', #98, .T. ) ;
#182 = FACE_OUTER_BOUND ( 'NONE', #33, .T. ) ;
#183 = EDGE_CURVE ( 'NONE', #177, #177, #260, .T. ) ;
#184 = CONICAL_SURFACE ( 'NONE', #100, 1.248499999999993726, 0.5235987755982919323 ) ;
#185 = EDGE_LOOP ( 'NONE', ( #243 ) ) ;
#186 = APPLICATION_PROTOCOL_DEFINITION ( 'international standard', 'config_control_design', 1994, #187 ) ;
#187 = APPLICATION_CONTEXT ( 'configuration controlled 3d designs of mechanical parts and assemblies' ) ;
#188 = ORIENTED_EDGE ( 'NONE', *, *, #183, .F. ) ;
#189 = AXIS2_PLACEMENT_3D ( 'NONE', #199, #218, #172 ) ;
#190 = PERSON_AND_ORGANIZATION ( #179, #110 ) ;
#191 = APPROVAL_DATE_TIME ( #295, #148 ) ;
#192 = APPROVAL_DATE_TIME ( #267, #302 ) ;
#193 = CIRCLE ( 'NONE', #75, 1.248499999999993726 ) ;
#194 = EDGE_LOOP ( 'NONE', ( #97 ) ) ;
#195 = FACE_OUTER_BOUND ( 'NONE', #271, .T. ) ;
#196 = CARTESIAN_POINT ( 'NONE',  ( 7.104220552055901835E-14, 1.125384493975578382, 20.34729635533384595 ) ) ;
#197 = ADVANCED_FACE ( 'NONE', ( #251 ), #39, .F. ) ;
#198 = FACE_BOUND ( 'NONE', #141, .T. ) ;
#199 = CARTESIAN_POINT ( 'NONE',  ( 1.745740669421566678E-13, -6.123233995736766085E-15, 50.00000000000000000 ) ) ;
#200 = AXIS2_PLACEMENT_3D ( 'NONE', #104, #250, #88 ) ;
#201 = VERTEX_POINT ( 'NONE', #89 ) ;
#202 = DIRECTION ( 'NONE',  ( 4.275831445896958607E-31, 1.000000000000000000, 1.224646799147353207E-16 ) ) ;
#203 = CARTESIAN_POINT ( 'NONE',  ( 6.982962677686266711E-14, 1.094999999999997975, 20.00000000000000000 ) ) ;
#204 = CONICAL_SURFACE ( 'NONE', #54, 1.200000000000001732, 0.7853981633974453924 ) ;
#205 = DIRECTION ( 'NONE',  ( 4.275831445896959482E-31, 1.000000000000000000, 1.224646799147353454E-16 ) ) ;
#206 = DIRECTION ( 'NONE',  ( -3.491481338843133355E-15, 1.224646799147353207E-16, -1.000000000000000000 ) ) ;
#207 = DIRECTION ( 'NONE',  ( 0.0000000000000000000, 1.000000000000000000, 0.0000000000000000000 ) ) ;
#208 = CC_DESIGN_PERSON_AND_ORGANIZATION_ASSIGNMENT ( #164, #56, ( #137 ) ) ;
#209 = EDGE_LOOP ( 'NONE', ( #10 ) ) ;
#210 = EDGE_LOOP ( 'NONE', ( #52 ) ) ;
#211 = CIRCLE ( 'NONE', #2, 1.500000000000001554 ) ;
#212 = ORIENTED_EDGE ( 'NONE', *, *, #35, .T. ) ;
#213 = ORIENTED_EDGE ( 'NONE', *, *, #167, .T. ) ;
#214 = AXIS2_PLACEMENT_3D ( 'NONE', #180, #279, #73 ) ;
#215 = APPROVAL_PERSON_ORGANIZATION ( #12, #28, #264 ) ;
#216 = PERSON_AND_ORGANIZATION ( #179, #110 ) ;
#217 = APPLICATION_PROTOCOL_DEFINITION ( 'international standard', 'config_control_design', 1994, #72 ) ;
#218 = DIRECTION ( 'NONE',  ( -3.491481338843133355E-15, 1.224646799147353207E-16, -1.000000000000000000 ) ) ;
#219 = DIRECTION ( 'NONE',  ( -3.491481338843133355E-15, 1.224646799147353207E-16, -1.000000000000000000 ) ) ;
#220 = CARTESIAN_POINT ( 'NONE',  ( 3.491481338843133355E-14, 9.362250443266590749E-33, 10.00000000000000000 ) ) ;
#221 = PLANE ( 'NONE',  #46 ) ;
#222 = DIRECTION ( 'NONE',  ( 3.491481338843133355E-15, -1.224646799147353207E-16, 1.000000000000000000 ) ) ;
#223 = DIRECTION ( 'NONE',  ( -4.275831445896958607E-31, -1.000000000000000000, -1.224646799147353207E-16 ) ) ;
#224 = DIRECTION ( 'NONE',  ( -3.491481338843133355E-15, 1.224646799147353207E-16, -1.000000000000000000 ) ) ;
#225 = CARTESIAN_POINT ( 'NONE',  ( 1.745740669421566678E-13, 8.998558695971067645E-33, 50.00000000000000000 ) ) ;
#226 = CIRCLE ( 'NONE', #230, 1.125384493975580824 ) ;
#227 = CARTESIAN_POINT ( 'NONE',  ( 1.745740669421566678E-13, -6.123233995736766085E-15, 50.00000000000000000 ) ) ;
#228 = PLANE ( 'NONE',  #254 ) ;
#229 = ADVANCED_FACE ( 'NONE', ( #181, #283 ), #256, .T. ) ;
#230 = AXIS2_PLACEMENT_3D ( 'NONE', #66, #275, #68 ) ;
#231 = LOCAL_TIME ( 7, 44, 57.00000000000000000, #291 ) ;
#232 = EDGE_CURVE ( 'NONE', #157, #157, #211, .T. ) ;
#233 = DIRECTION ( 'NONE',  ( -3.491481338843133355E-15, 1.224646799147353207E-16, -1.000000000000000000 ) ) ;
#234 = ORIENTED_EDGE ( 'NONE', *, *, #167, .F. ) ;
#235 = FACE_OUTER_BOUND ( 'NONE', #259, .T. ) ;
#236 = ORIENTED_EDGE ( 'NONE', *, *, #183, .T. ) ;
#237 = DIRECTION ( 'NONE',  ( 4.275831445896958607E-31, 1.000000000000000000, 1.224646799147353207E-16 ) ) ;
#238 = AXIS2_PLACEMENT_3D ( 'NONE', #270, #219, #299 ) ;
#239 = COORDINATED_UNIVERSAL_TIME_OFFSET ( 1, 0, .AHEAD. ) ;
#240 = EDGE_CURVE ( 'NONE', #201, #201, #36, .T. ) ;
#241 = ORIENTED_EDGE ( 'NONE', *, *, #232, .T. ) ;
#242 = SECURITY_CLASSIFICATION_LEVEL ( 'unclassified' ) ;
#243 = ORIENTED_EDGE ( 'NONE', *, *, #240, .F. ) ;
#244 = CALENDAR_DATE ( 2021, 30, 11 ) ;
#245 = CC_DESIGN_PERSON_AND_ORGANIZATION_ASSIGNMENT ( #32, #15, ( #266 ) ) ;
#246 = CC_DESIGN_APPROVAL ( #28, ( #266 ) ) ;
#247 = CALENDAR_DATE ( 2021, 30, 11 ) ;
#248 = PERSON_AND_ORGANIZATION_ROLE ( 'design_supplier' ) ;
#249 = VERTEX_POINT ( 'NONE', #203 ) ;
#250 = DIRECTION ( 'NONE',  ( 3.491481338843133355E-15, -1.224646799147353207E-16, 1.000000000000000000 ) ) ;
#251 = FACE_OUTER_BOUND ( 'NONE', #209, .T. ) ;
#252 = VERTEX_POINT ( 'NONE', #18 ) ;
#253 =( NAMED_UNIT ( * ) SI_UNIT ( $, .STERADIAN. ) SOLID_ANGLE_UNIT ( ) );
#254 = AXIS2_PLACEMENT_3D ( 'NONE', #220, #111, #223 ) ;
#255 = LOCAL_TIME ( 7, 44, 57.00000000000000000, #58 ) ;
#256 = CYLINDRICAL_SURFACE ( 'NONE', #166, 1.248499999999994392 ) ;
#257 = CARTESIAN_POINT ( 'NONE',  ( 0.0000000000000000000, 0.0000000000000000000, 0.0000000000000000000 ) ) ;
#258 = CARTESIAN_POINT ( 'NONE',  ( 0.0000000000000000000, 0.0000000000000000000, 0.0000000000000000000 ) ) ;
#259 = EDGE_LOOP ( 'NONE', ( #11 ) ) ;
#260 = CIRCLE ( 'NONE', #23, 1.248499999999995058 ) ;
#261 = AXIS2_PLACEMENT_3D ( 'NONE', #132, #272, #64 ) ;
#262 = DIRECTION ( 'NONE',  ( 1.000000000000000000, 0.0000000000000000000, 0.0000000000000000000 ) ) ;
#263 = CC_DESIGN_PERSON_AND_ORGANIZATION_ASSIGNMENT ( #103, #286, ( #121 ) ) ;
#264 = APPROVAL_ROLE ( '' ) ;
#265 = CIRCLE ( 'NONE', #152, 1.095000000000000195 ) ;
#266 = SECURITY_CLASSIFICATION ( '', '', #242 ) ;
#267 = DATE_AND_TIME ( #162, #290 ) ;
#268 = DIRECTION ( 'NONE',  ( 4.275831445896958607E-31, 1.000000000000000000, 1.224646799147352961E-16 ) ) ;
#269 = ADVANCED_FACE ( 'NONE', ( #278 ), #228, .T. ) ;
#270 = CARTESIAN_POINT ( 'NONE',  ( 3.491481338843133355E-14, -1.224646799147353256E-15, 10.00000000000000000 ) ) ;
#271 = EDGE_LOOP ( 'NONE', ( #213 ) ) ;
#272 = DIRECTION ( 'NONE',  ( -3.491481338843133355E-15, 1.224646799147353207E-16, -1.000000000000000000 ) ) ;
#273 = FACE_BOUND ( 'NONE', #285, .T. ) ;
#274 = CC_DESIGN_APPROVAL ( #302, ( #121 ) ) ;
#275 = DIRECTION ( 'NONE',  ( -3.491481338843133355E-15, 1.224646799147353207E-16, -1.000000000000000000 ) ) ;
#276 = UNCERTAINTY_MEASURE_WITH_UNIT (LENGTH_MEASURE( 1.000000000000000082E-05 ), #42, 'distance_accuracy_value', 'NONE');
#277 = PRODUCT_RELATED_PRODUCT_CATEGORY ( 'detail', '', ( #45 ) ) ;
#278 = FACE_OUTER_BOUND ( 'NONE', #78, .T. ) ;
#279 = DIRECTION ( 'NONE',  ( -3.491481338843133355E-15, 1.224646799147353207E-16, -1.000000000000000000 ) ) ;
#280 = CARTESIAN_POINT ( 'NONE',  ( 3.584309283006850024E-14, -1.257206458976207263E-15, 10.26586979896181973 ) ) ;
#281 = FACE_OUTER_BOUND ( 'NONE', #185, .T. ) ;
#282 = AXIS2_PLACEMENT_3D ( 'NONE', #4, #169, #19 ) ;
#283 = FACE_OUTER_BOUND ( 'NONE', #29, .T. ) ;
#284 = EDGE_LOOP ( 'NONE', ( #7 ) ) ;
#285 = EDGE_LOOP ( 'NONE', ( #55 ) ) ;
#286 = PERSON_AND_ORGANIZATION_ROLE ( 'creator' ) ;
#287 = ADVANCED_FACE ( 'NONE', ( #43, #69 ), #184, .T. ) ;
#288 = EDGE_LOOP ( 'NONE', ( #142 ) ) ;
#289 = AXIS2_PLACEMENT_3D ( 'NONE', #155, #174, #268 ) ;
#290 = LOCAL_TIME ( 7, 44, 57.00000000000000000, #294 ) ;
#291 = COORDINATED_UNIVERSAL_TIME_OFFSET ( 1, 0, .AHEAD. ) ;
#292 = ADVANCED_FACE ( 'NONE', ( #171, #198 ), #204, .T. ) ;
#293 = CALENDAR_DATE ( 2021, 30, 11 ) ;
#294 = COORDINATED_UNIVERSAL_TIME_OFFSET ( 1, 0, .AHEAD. ) ;
#295 = DATE_AND_TIME ( #60, #13 ) ;
#296 = ADVANCED_FACE ( 'NONE', ( #37, #134 ), #59, .F. ) ;
#297 = DIRECTION ( 'NONE',  ( 0.0000000000000000000, -1.000000000000000000, 0.0000000000000000000 ) ) ;
#298 = CARTESIAN_POINT ( 'NONE',  ( 8.728703347107829444E-16, -3.061616997868381785E-17, 0.2499999999999998890 ) ) ;
#299 = DIRECTION ( 'NONE',  ( 0.0000000000000000000, 1.000000000000000000, 0.0000000000000000000 ) ) ;
#300 = VERTEX_POINT ( 'NONE', #108 ) ;
#301 = PLANE ( 'NONE',  #200 ) ;
#302 = APPROVAL ( #122, 'UNSPECIFIED' ) ;
#303 = DIRECTION ( 'NONE',  ( -3.491481338843133355E-15, 1.224646799147353207E-16, -1.000000000000000000 ) ) ;
ENDSEC;
END-ISO-10303-21;
