ISO-10303-21;
HEADER;
FILE_DESCRIPTION (( 'STEP AP203' ),
    '1' );
FILE_NAME ('200140.step',
    '2021-11-30T06:44:56',
    ( '' ),
    ( '' ),
    'SwSTEP 2.0',
    'SolidWorks 2019',
    '' );
FILE_SCHEMA (( 'CONFIG_CONTROL_DESIGN' ));
ENDSEC;

DATA;
#1 = VERTEX_POINT ( 'NONE', #219 ) ;
#2 = AXIS2_PLACEMENT_3D ( 'NONE', #191, #69, #34 ) ;
#3 = AXIS2_PLACEMENT_3D ( 'NONE', #196, #65, #298 ) ;
#4 = CARTESIAN_POINT ( 'NONE',  ( 3.491481338843133355E-14, 9.324756448700046772E-33, 10.00000000000000000 ) ) ;
#5 = AXIS2_PLACEMENT_3D ( 'NONE', #184, #279, #301 ) ;
#6 = LOCAL_TIME ( 7, 44, 56.00000000000000000, #284 ) ;
#7 = COORDINATED_UNIVERSAL_TIME_OFFSET ( 1, 0, .AHEAD. ) ;
#8 = COORDINATED_UNIVERSAL_TIME_OFFSET ( 1, 0, .AHEAD. ) ;
#9 = SHAPE_DEFINITION_REPRESENTATION ( #25, #24 ) ;
#10 = FACE_OUTER_BOUND ( 'NONE', #232, .T. ) ;
#11 = DIRECTION ( 'NONE',  ( -3.491481338843133355E-15, 1.224646799147353207E-16, -1.000000000000000000 ) ) ;
#12 = CARTESIAN_POINT ( 'NONE',  ( 0.0000000000000000000, 1.099162432702589731, 0.0000000000000000000 ) ) ;
#13 = EDGE_LOOP ( 'NONE', ( #218 ) ) ;
#14 = DIRECTION ( 'NONE',  ( 4.275831445896958607E-31, 1.000000000000000000, 1.224646799147353454E-16 ) ) ;
#15 = APPROVAL ( #53, 'UNSPECIFIED' ) ;
#16 = DIRECTION ( 'NONE',  ( -3.491481338843133355E-15, 1.224646799147353207E-16, -1.000000000000000000 ) ) ;
#17 = DIRECTION ( 'NONE',  ( 3.491481338843133355E-15, -1.224646799147353207E-16, 1.000000000000000000 ) ) ;
#18 = VERTEX_POINT ( 'NONE', #63 ) ;
#19 = LOCAL_TIME ( 7, 44, 56.00000000000000000, #8 ) ;
#20 = DIRECTION ( 'NONE',  ( 0.0000000000000000000, 1.000000000000000000, 0.0000000000000000000 ) ) ;
#21 = CARTESIAN_POINT ( 'NONE',  ( 3.491481338843133355E-14, -1.224646799147353256E-15, 10.00000000000000000 ) ) ;
#22 = CIRCLE ( 'NONE', #185, 1.099162432702589731 ) ;
#23 = AXIS2_PLACEMENT_3D ( 'NONE', #205, #169, #146 ) ;
#24 = ADVANCED_BREP_SHAPE_REPRESENTATION ( '200140', ( #254, #157, #83 ), #270 ) ;
#25 = PRODUCT_DEFINITION_SHAPE ( 'NONE', 'NONE',  #27 ) ;
#26 = DIRECTION ( 'NONE',  ( -4.275831445896958607E-31, -1.000000000000000000, -1.224646799147353207E-16 ) ) ;
#27 = PRODUCT_DEFINITION ( 'UNKNOWN', '', #60, #110 ) ;
#28 = EDGE_CURVE ( 'NONE', #199, #199, #278, .T. ) ;
#29 = ORIENTED_EDGE ( 'NONE', *, *, #283, .T. ) ;
#30 = EDGE_LOOP ( 'NONE', ( #131 ) ) ;
#31 = APPROVAL_ROLE ( '' ) ;
#32 = APPROVAL_DATE_TIME ( #236, #15 ) ;
#33 = APPROVAL_DATE_TIME ( #166, #38 ) ;
#34 = DIRECTION ( 'NONE',  ( -4.646393110705053340E-31, -1.000000000000000000, -1.307843392624257374E-16 ) ) ;
#35 = CARTESIAN_POINT ( 'NONE',  ( 1.745740669421566678E-13, -6.123233995736766085E-15, 50.00000000000000000 ) ) ;
#36 = AXIS2_PLACEMENT_3D ( 'NONE', #103, #260, #113 ) ;
#37 = PERSON ( 'UNSPECIFIED', 'UNSPECIFIED', 'UNSPECIFIED', ('UNSPECIFIED'), ('UNSPECIFIED'), ('UNSPECIFIED') ) ;
#38 = APPROVAL ( #213, 'UNSPECIFIED' ) ;
#39 = ORIENTED_EDGE ( 'NONE', *, *, #183, .F. ) ;
#40 = CARTESIAN_POINT ( 'NONE',  ( 6.982962677686266711E-14, -2.449293598294706513E-15, 20.00000000000000000 ) ) ;
#41 = VERTEX_POINT ( 'NONE', #246 ) ;
#42 = FACE_BOUND ( 'NONE', #49, .T. ) ;
#43 = CYLINDRICAL_SURFACE ( 'NONE', #92, 1.243499999999994721 ) ;
#44 = AXIS2_PLACEMENT_3D ( 'NONE', #35, #216, #55 ) ;
#45 = CARTESIAN_POINT ( 'NONE',  ( 0.0000000000000000000, 0.0000000000000000000, 0.0000000000000000000 ) ) ;
#46 = AXIS2_PLACEMENT_3D ( 'NONE', #45, #109, #159 ) ;
#47 = PRODUCT_RELATED_PRODUCT_CATEGORY ( 'detail', '', ( #74 ) ) ;
#48 = CC_DESIGN_APPROVAL ( #15, ( #140 ) ) ;
#49 = EDGE_LOOP ( 'NONE', ( #39 ) ) ;
#50 = FACE_OUTER_BOUND ( 'NONE', #30, .T. ) ;
#51 = EDGE_LOOP ( 'NONE', ( #29 ) ) ;
#52 = CONICAL_SURFACE ( 'NONE', #161, 1.499999999999996669, 0.1745329251994265085 ) ;
#53 = APPROVAL_STATUS ( 'not_yet_approved' ) ;
#54 = PERSON_AND_ORGANIZATION ( #37, #240 ) ;
#55 = DIRECTION ( 'NONE',  ( 0.0000000000000000000, 1.000000000000000000, 0.0000000000000000000 ) ) ;
#56 = EDGE_CURVE ( 'NONE', #273, #273, #22, .T. ) ;
#57 = AXIS2_PLACEMENT_3D ( 'NONE', #253, #209, #281 ) ;
#58 = PERSON_AND_ORGANIZATION ( #37, #240 ) ;
#59 = CONICAL_SURFACE ( 'NONE', #141, 1.089999999999999414, 0.5235987755982913772 ) ;
#60 = PRODUCT_DEFINITION_FORMATION_WITH_SPECIFIED_SOURCE ( 'ANY', '', #74, .NOT_KNOWN. ) ;
#61 = PLANE ( 'NONE',  #256 ) ;
#62 = FACE_BOUND ( 'NONE', #13, .T. ) ;
#63 = CARTESIAN_POINT ( 'NONE',  ( 6.982962677686266711E-14, 1.089999999999998082, 20.00000000000000000 ) ) ;
#64 = APPROVAL_PERSON_ORGANIZATION ( #75, #124, #31 ) ;
#65 = DIRECTION ( 'NONE',  ( -3.491481338843133355E-15, 1.224646799147353207E-16, -1.000000000000000000 ) ) ;
#66 = EDGE_LOOP ( 'NONE', ( #121 ) ) ;
#67 =( LENGTH_UNIT ( ) NAMED_UNIT ( * ) SI_UNIT ( .MILLI., .METRE. ) );
#68 = EDGE_LOOP ( 'NONE', ( #299 ) ) ;
#69 = DIRECTION ( 'NONE',  ( 3.491481338843133355E-15, -1.224646799147353207E-16, 1.000000000000000000 ) ) ;
#70 = DIRECTION ( 'NONE',  ( 0.0000000000000000000, 0.0000000000000000000, 1.000000000000000000 ) ) ;
#71 = CC_DESIGN_PERSON_AND_ORGANIZATION_ASSIGNMENT ( #261, #95, ( #60 ) ) ;
#72 = EDGE_CURVE ( 'NONE', #18, #18, #91, .T. ) ;
#73 = ORIENTED_EDGE ( 'NONE', *, *, #112, .F. ) ;
#74 = PRODUCT ( '200140', '200140', '', ( #117 ) ) ;
#75 = PERSON_AND_ORGANIZATION ( #37, #240 ) ;
#76 = ADVANCED_FACE ( 'NONE', ( #297 ), #151, .F. ) ;
#77 = ADVANCED_FACE ( 'NONE', ( #50 ), #255, .T. ) ;
#78 = FACE_OUTER_BOUND ( 'NONE', #119, .T. ) ;
#79 = APPROVAL_ROLE ( '' ) ;
#80 = DIRECTION ( 'NONE',  ( 3.491481338843133355E-15, -1.224646799147353207E-16, 1.000000000000000000 ) ) ;
#81 = PERSON_AND_ORGANIZATION_ROLE ( 'classification_officer' ) ;
#82 = VERTEX_POINT ( 'NONE', #243 ) ;
#83 = AXIS2_PLACEMENT_3D ( 'NONE', #276, #70, #249 ) ;
#84 = VERTEX_POINT ( 'NONE', #174 ) ;
#85 = FACE_OUTER_BOUND ( 'NONE', #66, .T. ) ;
#86 = ORIENTED_EDGE ( 'NONE', *, *, #212, .T. ) ;
#87 = FACE_OUTER_BOUND ( 'NONE', #178, .T. ) ;
#88 = CONICAL_SURFACE ( 'NONE', #2, 1.243499999999994277, 0.5235987755982928205 ) ;
#89 = CC_DESIGN_PERSON_AND_ORGANIZATION_ASSIGNMENT ( #192, #289, ( #74 ) ) ;
#90 = ORIENTED_EDGE ( 'NONE', *, *, #99, .T. ) ;
#91 = CIRCLE ( 'NONE', #175, 1.090000000000000524 ) ;
#92 = AXIS2_PLACEMENT_3D ( 'NONE', #139, #226, #14 ) ;
#93 = CIRCLE ( 'NONE', #3, 1.243499999999995387 ) ;
#94 = CC_DESIGN_SECURITY_CLASSIFICATION ( #140, ( #60 ) ) ;
#95 = PERSON_AND_ORGANIZATION_ROLE ( 'creator' ) ;
#96 = AXIS2_PLACEMENT_3D ( 'NONE', #150, #136, #248 ) ;
#97 = AXIS2_PLACEMENT_3D ( 'NONE', #21, #266, #106 ) ;
#98 = CC_DESIGN_PERSON_AND_ORGANIZATION_ASSIGNMENT ( #285, #81, ( #140 ) ) ;
#99 = EDGE_CURVE ( 'NONE', #84, #84, #138, .T. ) ;
#100 = APPLICATION_PROTOCOL_DEFINITION ( 'international standard', 'config_control_design', 1994, #129 ) ;
#101 = DIRECTION ( 'NONE',  ( -4.275831445896958607E-31, -1.000000000000000000, -1.224646799147353207E-16 ) ) ;
#102 = DATE_TIME_ROLE ( 'creation_date' ) ;
#103 = CARTESIAN_POINT ( 'NONE',  ( 6.982962677686266711E-14, -2.602085213965210642E-15, 20.00000000000000000 ) ) ;
#104 = PERSON_AND_ORGANIZATION ( #37, #240 ) ;
#105 = DIRECTION ( 'NONE',  ( -3.491481338843133355E-15, 1.224646799147353207E-16, -1.000000000000000000 ) ) ;
#106 = DIRECTION ( 'NONE',  ( 0.0000000000000000000, 1.000000000000000000, 0.0000000000000000000 ) ) ;
#107 = EDGE_LOOP ( 'NONE', ( #120 ) ) ;
#108 = CARTESIAN_POINT ( 'NONE',  ( 8.728703347107827472E-16, -3.061616997868381169E-17, 0.2499999999999998335 ) ) ;
#109 = DIRECTION ( 'NONE',  ( -3.491481338843133355E-15, 1.224646799147353207E-16, -1.000000000000000000 ) ) ;
#110 = DESIGN_CONTEXT ( 'detailed design', #129, 'design' ) ;
#111 = DIRECTION ( 'NONE',  ( -3.491481338843133355E-15, 1.224646799147353207E-16, -1.000000000000000000 ) ) ;
#112 = EDGE_CURVE ( 'NONE', #152, #152, #143, .T. ) ;
#113 = DIRECTION ( 'NONE',  ( 4.275831445896958607E-31, 1.000000000000000000, 1.224646799147353207E-16 ) ) ;
#114 = FACE_OUTER_BOUND ( 'NONE', #271, .T. ) ;
#115 = APPLICATION_CONTEXT ( 'configuration controlled 3d designs of mechanical parts and assemblies' ) ;
#116 = CYLINDRICAL_SURFACE ( 'NONE', #23, 1.499999999999999112 ) ;
#117 = MECHANICAL_CONTEXT ( 'NONE', #115, 'mechanical' ) ;
#118 = AXIS2_PLACEMENT_3D ( 'NONE', #108, #111, #268 ) ;
#119 = EDGE_LOOP ( 'NONE', ( #294 ) ) ;
#120 = ORIENTED_EDGE ( 'NONE', *, *, #72, .F. ) ;
#121 = ORIENTED_EDGE ( 'NONE', *, *, #28, .F. ) ;
#122 = CIRCLE ( 'NONE', #147, 1.120384493975580487 ) ;
#123 = PERSON_AND_ORGANIZATION ( #37, #240 ) ;
#124 = APPROVAL ( #194, 'UNSPECIFIED' ) ;
#125 = ADVANCED_FACE ( 'NONE', ( #239 ), #263, .F. ) ;
#126 = AXIS2_PLACEMENT_3D ( 'NONE', #193, #11, #303 ) ;
#127 = CALENDAR_DATE ( 2021, 30, 11 ) ;
#128 = CARTESIAN_POINT ( 'NONE',  ( 7.104220552055901835E-14, -2.491825135286219831E-15, 20.34729635533384595 ) ) ;
#129 = APPLICATION_CONTEXT ( 'configuration controlled 3d designs of mechanical parts and assemblies' ) ;
#130 = FACE_BOUND ( 'NONE', #156, .T. ) ;
#131 = ORIENTED_EDGE ( 'NONE', *, *, #283, .F. ) ;
#132 = CIRCLE ( 'NONE', #97, 1.243499999999995387 ) ;
#133 = DIRECTION ( 'NONE',  ( -3.491481338843133355E-15, 1.224646799147353207E-16, -1.000000000000000000 ) ) ;
#134 = CYLINDRICAL_SURFACE ( 'NONE', #46, 1.089999999999999858 ) ;
#135 = ADVANCED_FACE ( 'NONE', ( #42, #288 ), #52, .T. ) ;
#136 = DIRECTION ( 'NONE',  ( -3.491481338843133355E-15, 1.224646799147353207E-16, -1.000000000000000000 ) ) ;
#137 = APPLICATION_PROTOCOL_DEFINITION ( 'international standard', 'config_control_design', 1994, #115 ) ;
#138 = CIRCLE ( 'NONE', #5, 1.089999999999999414 ) ;
#139 = CARTESIAN_POINT ( 'NONE',  ( 0.0000000000000000000, 0.0000000000000000000, 0.0000000000000000000 ) ) ;
#140 = SECURITY_CLASSIFICATION ( '', '', #190 ) ;
#141 = AXIS2_PLACEMENT_3D ( 'NONE', #286, #165, #223 ) ;
#142 = EDGE_LOOP ( 'NONE', ( #225 ) ) ;
#143 = CIRCLE ( 'NONE', #189, 1.499999999999996669 ) ;
#144 = APPROVAL_ROLE ( '' ) ;
#145 = COORDINATED_UNIVERSAL_TIME_OFFSET ( 1, 0, .AHEAD. ) ;
#146 = DIRECTION ( 'NONE',  ( 4.275831445896958607E-31, 1.000000000000000000, 1.224646799147353454E-16 ) ) ;
#147 = AXIS2_PLACEMENT_3D ( 'NONE', #128, #105, #20 ) ;
#148 = DATE_AND_TIME ( #211, #6 ) ;
#149 = CARTESIAN_POINT ( 'NONE',  ( 3.491481338843133355E-14, 9.324756448700046772E-33, 10.00000000000000000 ) ) ;
#150 = CARTESIAN_POINT ( 'NONE',  ( 1.745740669421566678E-13, -6.123233995736766085E-15, 50.00000000000000000 ) ) ;
#151 = PLANE ( 'NONE',  #57 ) ;
#152 = VERTEX_POINT ( 'NONE', #295 ) ;
#153 = CC_DESIGN_DATE_AND_TIME_ASSIGNMENT ( #164, #102, ( #27 ) ) ;
#154 = ADVANCED_FACE ( 'NONE', ( #78 ), #61, .F. ) ;
#155 = CARTESIAN_POINT ( 'NONE',  ( -4.699833293898332327E-31, 1.648479611180114803E-32, -1.346085754952244602E-16 ) ) ;
#156 = EDGE_LOOP ( 'NONE', ( #186 ) ) ;
#157 = MANIFOLD_SOLID_BREP ( 'Corps-Déplacer/Copier1[2]', #207 ) ;
#158 = FACE_OUTER_BOUND ( 'NONE', #51, .T. ) ;
#159 = DIRECTION ( 'NONE',  ( 4.275831445896958607E-31, 1.000000000000000000, 1.224646799147353207E-16 ) ) ;
#160 = LOCAL_TIME ( 7, 44, 56.00000000000000000, #145 ) ;
#161 = AXIS2_PLACEMENT_3D ( 'NONE', #214, #80, #179 ) ;
#162 = ADVANCED_FACE ( 'NONE', ( #167, #195 ), #252, .F. ) ;
#163 = DATE_AND_TIME ( #238, #19 ) ;
#164 = DATE_AND_TIME ( #287, #187 ) ;
#165 = DIRECTION ( 'NONE',  ( -3.491481338843133355E-15, 1.224646799147353207E-16, -1.000000000000000000 ) ) ;
#166 = DATE_AND_TIME ( #215, #250 ) ;
#167 = FACE_OUTER_BOUND ( 'NONE', #107, .T. ) ;
#168 = PERSON_AND_ORGANIZATION_ROLE ( 'creator' ) ;
#169 = DIRECTION ( 'NONE',  ( -3.491481338843133355E-15, 1.224646799147353207E-16, -1.000000000000000000 ) ) ;
#170 = UNCERTAINTY_MEASURE_WITH_UNIT (LENGTH_MEASURE( 1.000000000000000082E-05 ), #67, 'distance_accuracy_value', 'NONE');
#171 = VERTEX_POINT ( 'NONE', #269 ) ;
#172 = CC_DESIGN_PERSON_AND_ORGANIZATION_ASSIGNMENT ( #58, #257, ( #60 ) ) ;
#173 = EDGE_CURVE ( 'NONE', #1, #1, #201, .T. ) ;
#174 = CARTESIAN_POINT ( 'NONE',  ( 3.584309283006850656E-14, 1.089999999999998082, 10.26586979896182150 ) ) ;
#175 = AXIS2_PLACEMENT_3D ( 'NONE', #40, #133, #221 ) ;
#176 = EDGE_LOOP ( 'NONE', ( #86 ) ) ;
#177 = CC_DESIGN_APPROVAL ( #124, ( #27 ) ) ;
#178 = EDGE_LOOP ( 'NONE', ( #210 ) ) ;
#179 = DIRECTION ( 'NONE',  ( 0.0000000000000000000, -1.000000000000000000, 0.0000000000000000000 ) ) ;
#180 = DIRECTION ( 'NONE',  ( -3.491481338843133355E-15, 1.224646799147353207E-16, -1.000000000000000000 ) ) ;
#181 = EDGE_LOOP ( 'NONE', ( #302 ) ) ;
#182 = ADVANCED_FACE ( 'NONE', ( #130, #203 ), #88, .T. ) ;
#183 = EDGE_CURVE ( 'NONE', #82, #82, #122, .T. ) ;
#184 = CARTESIAN_POINT ( 'NONE',  ( 3.584309283006850656E-14, -1.257206458976207460E-15, 10.26586979896182150 ) ) ;
#185 = AXIS2_PLACEMENT_3D ( 'NONE', #155, #16, #245 ) ;
#186 = ORIENTED_EDGE ( 'NONE', *, *, #56, .F. ) ;
#187 = LOCAL_TIME ( 7, 44, 56.00000000000000000, #7 ) ;
#188 = APPROVAL_DATE_TIME ( #163, #124 ) ;
#189 = AXIS2_PLACEMENT_3D ( 'NONE', #277, #180, #227 ) ;
#190 = SECURITY_CLASSIFICATION_LEVEL ( 'unclassified' ) ;
#191 = CARTESIAN_POINT ( 'NONE',  ( 8.728703347107827472E-16, -3.061616997868381169E-17, 0.2499999999999998335 ) ) ;
#192 = PERSON_AND_ORGANIZATION ( #37, #240 ) ;
#193 = CARTESIAN_POINT ( 'NONE',  ( 1.735266225405037467E-13, -6.086494591762345225E-15, 49.70000000000000284 ) ) ;
#194 = APPROVAL_STATUS ( 'not_yet_approved' ) ;
#195 = FACE_OUTER_BOUND ( 'NONE', #198, .T. ) ;
#196 = CARTESIAN_POINT ( 'NONE',  ( 3.491481338843133355E-14, -1.224646799147353256E-15, 10.00000000000000000 ) ) ;
#197 = CC_DESIGN_PERSON_AND_ORGANIZATION_ASSIGNMENT ( #104, #168, ( #27 ) ) ;
#198 = EDGE_LOOP ( 'NONE', ( #208 ) ) ;
#199 = VERTEX_POINT ( 'NONE', #224 ) ;
#200 = FACE_OUTER_BOUND ( 'NONE', #202, .T. ) ;
#201 = CIRCLE ( 'NONE', #44, 1.200000000000001732 ) ;
#202 = EDGE_LOOP ( 'NONE', ( #274 ) ) ;
#203 = FACE_OUTER_BOUND ( 'NONE', #68, .T. ) ;
#204 = ORIENTED_EDGE ( 'NONE', *, *, #173, .F. ) ;
#205 = CARTESIAN_POINT ( 'NONE',  ( 0.0000000000000000000, 0.0000000000000000000, 0.0000000000000000000 ) ) ;
#206 = CARTESIAN_POINT ( 'NONE',  ( 3.491481338843133355E-14, 1.243499999999994277, 10.00000000000000000 ) ) ;
#207 = CLOSED_SHELL ( 'NONE', ( #125, #182, #258, #77 ) ) ;
#208 = ORIENTED_EDGE ( 'NONE', *, *, #183, .T. ) ;
#209 = DIRECTION ( 'NONE',  ( -3.491481338843133355E-15, 1.224646799147353207E-16, -1.000000000000000000 ) ) ;
#210 = ORIENTED_EDGE ( 'NONE', *, *, #282, .F. ) ;
#211 = CALENDAR_DATE ( 2021, 30, 11 ) ;
#212 = EDGE_CURVE ( 'NONE', #171, #171, #290, .T. ) ;
#213 = APPROVAL_STATUS ( 'not_yet_approved' ) ;
#214 = CARTESIAN_POINT ( 'NONE',  ( 7.855903845159646804E-14, -2.755480142870208807E-15, 22.50020287309517641 ) ) ;
#215 = CALENDAR_DATE ( 2021, 30, 11 ) ;
#216 = DIRECTION ( 'NONE',  ( -3.491481338843133355E-15, 1.224646799147353207E-16, -1.000000000000000000 ) ) ;
#217 = EDGE_LOOP ( 'NONE', ( #204 ) ) ;
#218 = ORIENTED_EDGE ( 'NONE', *, *, #173, .T. ) ;
#219 = CARTESIAN_POINT ( 'NONE',  ( 1.745740669421566678E-13, 1.199999999999995515, 50.00000000000000000 ) ) ;
#220 = EDGE_LOOP ( 'NONE', ( #90 ) ) ;
#221 = DIRECTION ( 'NONE',  ( 0.0000000000000000000, 1.000000000000000000, 0.0000000000000000000 ) ) ;
#222 =( NAMED_UNIT ( * ) SI_UNIT ( $, .STERADIAN. ) SOLID_ANGLE_UNIT ( ) );
#223 = DIRECTION ( 'NONE',  ( 0.0000000000000000000, 1.000000000000000000, 0.0000000000000000000 ) ) ;
#224 = CARTESIAN_POINT ( 'NONE',  ( 8.728703347107833388E-16, 1.243499999999994277, 0.2500000000000000000 ) ) ;
#225 = ORIENTED_EDGE ( 'NONE', *, *, #56, .T. ) ;
#226 = DIRECTION ( 'NONE',  ( -3.491481338843133355E-15, 1.224646799147353207E-16, -1.000000000000000000 ) ) ;
#227 = DIRECTION ( 'NONE',  ( 0.0000000000000000000, 1.000000000000000000, 0.0000000000000000000 ) ) ;
#228 = CC_DESIGN_DATE_AND_TIME_ASSIGNMENT ( #148, #259, ( #140 ) ) ;
#229 = ADVANCED_FACE ( 'NONE', ( #10, #292 ), #116, .T. ) ;
#230 = AXIS2_PLACEMENT_3D ( 'NONE', #242, #17, #101 ) ;
#231 = CONICAL_SURFACE ( 'NONE', #96, 1.200000000000001732, 0.7853981633974453924 ) ;
#232 = EDGE_LOOP ( 'NONE', ( #73 ) ) ;
#233 = DIRECTION ( 'NONE',  ( 3.491481338843133355E-15, -1.224646799147353207E-16, 1.000000000000000000 ) ) ;
#234 = CC_DESIGN_APPROVAL ( #38, ( #60 ) ) ;
#235 = COORDINATED_UNIVERSAL_TIME_OFFSET ( 1, 0, .AHEAD. ) ;
#236 = DATE_AND_TIME ( #127, #160 ) ;
#237 = ADVANCED_FACE ( 'NONE', ( #265, #62 ), #231, .T. ) ;
#238 = CALENDAR_DATE ( 2021, 30, 11 ) ;
#239 = FACE_OUTER_BOUND ( 'NONE', #142, .T. ) ;
#240 = ORGANIZATION ( 'UNSPECIFIED', 'UNSPECIFIED', '' ) ;
#241 = DIRECTION ( 'NONE',  ( 3.491481338843133355E-15, -1.224646799147353207E-16, 1.000000000000000000 ) ) ;
#242 = CARTESIAN_POINT ( 'NONE',  ( -2.349916646949166164E-31, 8.242398055900574014E-33, -6.730428774761223011E-17 ) ) ;
#243 = CARTESIAN_POINT ( 'NONE',  ( 7.104220552055901835E-14, 1.120384493975578266, 20.34729635533384595 ) ) ;
#244 = EDGE_LOOP ( 'NONE', ( #280 ) ) ;
#245 = DIRECTION ( 'NONE',  ( 4.275831445896958607E-31, 1.000000000000000000, 1.224646799147353207E-16 ) ) ;
#246 = CARTESIAN_POINT ( 'NONE',  ( 3.491481338843133355E-14, 1.243499999999994277, 10.00000000000000000 ) ) ;
#247 =( NAMED_UNIT ( * ) PLANE_ANGLE_UNIT ( ) SI_UNIT ( $, .RADIAN. ) );
#248 = DIRECTION ( 'NONE',  ( 0.0000000000000000000, 1.000000000000000000, 0.0000000000000000000 ) ) ;
#249 = DIRECTION ( 'NONE',  ( 1.000000000000000000, 0.0000000000000000000, 0.0000000000000000000 ) ) ;
#250 = LOCAL_TIME ( 7, 44, 56.00000000000000000, #235 ) ;
#251 = ADVANCED_FACE ( 'NONE', ( #87, #300 ), #59, .T. ) ;
#252 = TOROIDAL_SURFACE ( 'NONE', #36, 3.090000000000000746, 2.000000000000000444 ) ;
#253 = CARTESIAN_POINT ( 'NONE',  ( 1.745740669421566678E-13, 8.998558695971067645E-33, 50.00000000000000000 ) ) ;
#254 = MANIFOLD_SOLID_BREP ( 'Corps-Déplacer/Copier1[1]', #296 ) ;
#255 = PLANE ( 'NONE',  #262 ) ;
#256 = AXIS2_PLACEMENT_3D ( 'NONE', #149, #241, #275 ) ;
#257 = PERSON_AND_ORGANIZATION_ROLE ( 'design_supplier' ) ;
#258 = ADVANCED_FACE ( 'NONE', ( #85, #158 ), #43, .T. ) ;
#259 = DATE_TIME_ROLE ( 'classification_date' ) ;
#260 = DIRECTION ( 'NONE',  ( -3.491481338843133355E-15, 1.224646799147353207E-16, -1.000000000000000000 ) ) ;
#261 = PERSON_AND_ORGANIZATION ( #37, #240 ) ;
#262 = AXIS2_PLACEMENT_3D ( 'NONE', #4, #233, #26 ) ;
#263 = PLANE ( 'NONE',  #230 ) ;
#264 = APPROVAL_PERSON_ORGANIZATION ( #54, #38, #79 ) ;
#265 = FACE_OUTER_BOUND ( 'NONE', #181, .T. ) ;
#266 = DIRECTION ( 'NONE',  ( -3.491481338843133355E-15, 1.224646799147353207E-16, -1.000000000000000000 ) ) ;
#267 = ORIENTED_EDGE ( 'NONE', *, *, #99, .F. ) ;
#268 = DIRECTION ( 'NONE',  ( 4.646393110705053340E-31, 1.000000000000000000, 1.307843392624257374E-16 ) ) ;
#269 = CARTESIAN_POINT ( 'NONE',  ( 1.735266225405037467E-13, 1.499999999999995559, 49.70000000000000284 ) ) ;
#270 =( GEOMETRIC_REPRESENTATION_CONTEXT ( 3 ) GLOBAL_UNCERTAINTY_ASSIGNED_CONTEXT ( ( #170 ) ) GLOBAL_UNIT_ASSIGNED_CONTEXT ( ( #67, #247, #222 ) ) REPRESENTATION_CONTEXT ( 'NONE', 'WORKASPACE' ) );
#271 = EDGE_LOOP ( 'NONE', ( #267 ) ) ;
#272 = ADVANCED_FACE ( 'NONE', ( #114, #200 ), #134, .T. ) ;
#273 = VERTEX_POINT ( 'NONE', #12 ) ;
#274 = ORIENTED_EDGE ( 'NONE', *, *, #72, .T. ) ;
#275 = DIRECTION ( 'NONE',  ( -4.275831445896958607E-31, -1.000000000000000000, -1.224646799147353207E-16 ) ) ;
#276 = CARTESIAN_POINT ( 'NONE',  ( 0.0000000000000000000, 0.0000000000000000000, 0.0000000000000000000 ) ) ;
#277 = CARTESIAN_POINT ( 'NONE',  ( 7.855903845159646804E-14, -2.755480142870208807E-15, 22.50020287309517641 ) ) ;
#278 = CIRCLE ( 'NONE', #118, 1.243499999999994277 ) ;
#279 = DIRECTION ( 'NONE',  ( -3.491481338843133355E-15, 1.224646799147353207E-16, -1.000000000000000000 ) ) ;
#280 = ORIENTED_EDGE ( 'NONE', *, *, #112, .T. ) ;
#281 = DIRECTION ( 'NONE',  ( 4.275831445896958607E-31, 1.000000000000000000, 1.224646799147353207E-16 ) ) ;
#282 = EDGE_CURVE ( 'NONE', #293, #293, #132, .T. ) ;
#283 = EDGE_CURVE ( 'NONE', #41, #41, #93, .T. ) ;
#284 = COORDINATED_UNIVERSAL_TIME_OFFSET ( 1, 0, .AHEAD. ) ;
#285 = PERSON_AND_ORGANIZATION ( #37, #240 ) ;
#286 = CARTESIAN_POINT ( 'NONE',  ( 3.584309283006850656E-14, -1.257206458976207460E-15, 10.26586979896182150 ) ) ;
#287 = CALENDAR_DATE ( 2021, 30, 11 ) ;
#288 = FACE_OUTER_BOUND ( 'NONE', #244, .T. ) ;
#289 = PERSON_AND_ORGANIZATION_ROLE ( 'design_owner' ) ;
#290 = CIRCLE ( 'NONE', #126, 1.500000000000001554 ) ;
#291 = APPROVAL_PERSON_ORGANIZATION ( #123, #15, #144 ) ;
#292 = FACE_OUTER_BOUND ( 'NONE', #176, .T. ) ;
#293 = VERTEX_POINT ( 'NONE', #206 ) ;
#294 = ORIENTED_EDGE ( 'NONE', *, *, #282, .T. ) ;
#295 = CARTESIAN_POINT ( 'NONE',  ( 7.855903845159646804E-14, 1.499999999999994005, 22.50020287309517641 ) ) ;
#296 = CLOSED_SHELL ( 'NONE', ( #154, #251, #272, #162, #135, #229, #237, #76 ) ) ;
#297 = FACE_OUTER_BOUND ( 'NONE', #217, .T. ) ;
#298 = DIRECTION ( 'NONE',  ( 0.0000000000000000000, 1.000000000000000000, 0.0000000000000000000 ) ) ;
#299 = ORIENTED_EDGE ( 'NONE', *, *, #28, .T. ) ;
#300 = FACE_BOUND ( 'NONE', #220, .T. ) ;
#301 = DIRECTION ( 'NONE',  ( 0.0000000000000000000, 1.000000000000000000, 0.0000000000000000000 ) ) ;
#302 = ORIENTED_EDGE ( 'NONE', *, *, #212, .F. ) ;
#303 = DIRECTION ( 'NONE',  ( 0.0000000000000000000, 1.000000000000000000, 0.0000000000000000000 ) ) ;
ENDSEC;
END-ISO-10303-21;
