ISO-10303-21;
HEADER;
FILE_DESCRIPTION (( 'STEP AP203' ),
    '1' );
FILE_NAME ('200139.step',
    '2021-11-30T06:44:56',
    ( '' ),
    ( '' ),
    'SwSTEP 2.0',
    'SolidWorks 2019',
    '' );
FILE_SCHEMA (( 'CONFIG_CONTROL_DESIGN' ));
ENDSEC;

DATA;
#1 = LOCAL_TIME ( 7, 44, 56.00000000000000000, #23 ) ;
#2 = CC_DESIGN_APPROVAL ( #287, ( #55 ) ) ;
#3 = CALENDAR_DATE ( 2021, 30, 11 ) ;
#4 = EDGE_CURVE ( 'NONE', #65, #65, #198, .T. ) ;
#5 = ORIENTED_EDGE ( 'NONE', *, *, #196, .F. ) ;
#6 = AXIS2_PLACEMENT_3D ( 'NONE', #144, #20, #214 ) ;
#7 = DIRECTION ( 'NONE',  ( 0.0000000000000000000, 1.000000000000000000, 0.0000000000000000000 ) ) ;
#8 = ORIENTED_EDGE ( 'NONE', *, *, #145, .T. ) ;
#9 = DIRECTION ( 'NONE',  ( 0.0000000000000000000, 1.000000000000000000, 0.0000000000000000000 ) ) ;
#10 = DIRECTION ( 'NONE',  ( 4.275831445896958607E-31, 1.000000000000000000, 1.224646799147353207E-16 ) ) ;
#11 = SECURITY_CLASSIFICATION_LEVEL ( 'unclassified' ) ;
#12 = CARTESIAN_POINT ( 'NONE',  ( 2.793185071074506684E-14, 1.103499999999998593, 8.000000000000000000 ) ) ;
#13 = EDGE_LOOP ( 'NONE', ( #261 ) ) ;
#14 = VERTEX_POINT ( 'NONE', #12 ) ;
#15 = ORIENTED_EDGE ( 'NONE', *, *, #4, .T. ) ;
#16 = CARTESIAN_POINT ( 'NONE',  ( 1.735266225405037467E-13, -6.086494591762345225E-15, 49.70000000000000284 ) ) ;
#17 = AXIS2_PLACEMENT_3D ( 'NONE', #140, #281, #10 ) ;
#18 = DIRECTION ( 'NONE',  ( 0.0000000000000000000, 1.000000000000000000, 0.0000000000000000000 ) ) ;
#19 = EDGE_CURVE ( 'NONE', #231, #231, #26, .T. ) ;
#20 = DIRECTION ( 'NONE',  ( -3.491481338843133355E-15, 1.224646799147353207E-16, -1.000000000000000000 ) ) ;
#21 = APPROVAL_DATE_TIME ( #22, #43 ) ;
#22 = DATE_AND_TIME ( #238, #143 ) ;
#23 = COORDINATED_UNIVERSAL_TIME_OFFSET ( 1, 0, .AHEAD. ) ;
#24 = SHAPE_DEFINITION_REPRESENTATION ( #119, #72 ) ;
#25 = CONICAL_SURFACE ( 'NONE', #222, 1.200000000000001732, 0.7853981633974453924 ) ;
#26 = CIRCLE ( 'NONE', #75, 0.9803844939755804733 ) ;
#27 =( GEOMETRIC_REPRESENTATION_CONTEXT ( 3 ) GLOBAL_UNCERTAINTY_ASSIGNED_CONTEXT ( ( #36 ) ) GLOBAL_UNIT_ASSIGNED_CONTEXT ( ( #141, #286, #125 ) ) REPRESENTATION_CONTEXT ( 'NONE', 'WORKASPACE' ) );
#28 = ADVANCED_FACE ( 'NONE', ( #213 ), #188, .T. ) ;
#29 = EDGE_LOOP ( 'NONE', ( #5 ) ) ;
#30 = APPLICATION_CONTEXT ( 'configuration controlled 3d designs of mechanical parts and assemblies' ) ;
#31 = EDGE_CURVE ( 'NONE', #154, #154, #217, .T. ) ;
#32 = LOCAL_TIME ( 7, 44, 56.00000000000000000, #121 ) ;
#33 = ORIENTED_EDGE ( 'NONE', *, *, #200, .T. ) ;
#34 = PERSON_AND_ORGANIZATION_ROLE ( 'design_supplier' ) ;
#35 = VERTEX_POINT ( 'NONE', #278 ) ;
#36 = UNCERTAINTY_MEASURE_WITH_UNIT (LENGTH_MEASURE( 1.000000000000000082E-05 ), #141, 'distance_accuracy_value', 'NONE');
#37 = DIRECTION ( 'NONE',  ( -3.491481338843133355E-15, 1.224646799147353207E-16, -1.000000000000000000 ) ) ;
#38 = CC_DESIGN_SECURITY_CLASSIFICATION ( #147, ( #55 ) ) ;
#39 = VERTEX_POINT ( 'NONE', #158 ) ;
#40 = DIRECTION ( 'NONE',  ( -3.491481338843133355E-15, 1.224646799147353207E-16, -1.000000000000000000 ) ) ;
#41 = FACE_OUTER_BOUND ( 'NONE', #13, .T. ) ;
#42 = DIRECTION ( 'NONE',  ( 0.0000000000000000000, 1.000000000000000000, 0.0000000000000000000 ) ) ;
#43 = APPROVAL ( #271, 'UNSPECIFIED' ) ;
#44 = DIRECTION ( 'NONE',  ( -3.491481338843133355E-15, 1.224646799147353207E-16, -1.000000000000000000 ) ) ;
#45 = EDGE_CURVE ( 'NONE', #56, #56, #124, .T. ) ;
#46 = DIRECTION ( 'NONE',  ( 1.000000000000000000, 0.0000000000000000000, 0.0000000000000000000 ) ) ;
#47 = AXIS2_PLACEMENT_3D ( 'NONE', #255, #186, #42 ) ;
#48 = PERSON_AND_ORGANIZATION ( #168, #106 ) ;
#49 = CC_DESIGN_DATE_AND_TIME_ASSIGNMENT ( #234, #189, ( #233 ) ) ;
#50 = CIRCLE ( 'NONE', #117, 0.9499999999999985123 ) ;
#51 = ORIENTED_EDGE ( 'NONE', *, *, #77, .F. ) ;
#52 = LOCAL_TIME ( 7, 44, 56.00000000000000000, #216 ) ;
#53 = ADVANCED_FACE ( 'NONE', ( #230, #114 ), #237, .T. ) ;
#54 = EDGE_LOOP ( 'NONE', ( #51 ) ) ;
#55 = PRODUCT_DEFINITION_FORMATION_WITH_SPECIFIED_SOURCE ( 'ANY', '', #79, .NOT_KNOWN. ) ;
#56 = VERTEX_POINT ( 'NONE', #185 ) ;
#57 = EDGE_LOOP ( 'NONE', ( #33 ) ) ;
#58 = PERSON_AND_ORGANIZATION ( #168, #106 ) ;
#59 = FACE_OUTER_BOUND ( 'NONE', #174, .T. ) ;
#60 = CYLINDRICAL_SURFACE ( 'NONE', #300, 1.103499999999999037 ) ;
#61 = PRODUCT_RELATED_PRODUCT_CATEGORY ( 'detail', '', ( #79 ) ) ;
#62 = CARTESIAN_POINT ( 'NONE',  ( 0.0000000000000000000, 0.9591624327025942698, 0.0000000000000000000 ) ) ;
#63 = EDGE_LOOP ( 'NONE', ( #153 ) ) ;
#64 = AXIS2_PLACEMENT_3D ( 'NONE', #16, #108, #269 ) ;
#65 = VERTEX_POINT ( 'NONE', #62 ) ;
#66 = CARTESIAN_POINT ( 'NONE',  ( 2.886013015238226509E-14, -1.012277099146737952E-15, 8.265869798961828607 ) ) ;
#67 = DIRECTION ( 'NONE',  ( -3.491481338843133355E-15, 1.224646799147353207E-16, -1.000000000000000000 ) ) ;
#68 = FACE_OUTER_BOUND ( 'NONE', #138, .T. ) ;
#69 = FACE_OUTER_BOUND ( 'NONE', #148, .T. ) ;
#70 = COORDINATED_UNIVERSAL_TIME_OFFSET ( 1, 0, .AHEAD. ) ;
#71 = APPLICATION_PROTOCOL_DEFINITION ( 'international standard', 'config_control_design', 1994, #258 ) ;
#72 = ADVANCED_BREP_SHAPE_REPRESENTATION ( '200139', ( #195, #98, #204 ), #27 ) ;
#73 = AXIS2_PLACEMENT_3D ( 'NONE', #112, #164, #298 ) ;
#74 = FACE_OUTER_BOUND ( 'NONE', #127, .T. ) ;
#75 = AXIS2_PLACEMENT_3D ( 'NONE', #232, #89, #276 ) ;
#76 = CLOSED_SHELL ( 'NONE', ( #169, #165, #126, #28 ) ) ;
#77 = EDGE_CURVE ( 'NONE', #245, #245, #290, .T. ) ;
#78 = EDGE_LOOP ( 'NONE', ( #8 ) ) ;
#79 = PRODUCT ( '200139', '200139', '', ( #296 ) ) ;
#80 = PERSON_AND_ORGANIZATION_ROLE ( 'creator' ) ;
#81 = AXIS2_PLACEMENT_3D ( 'NONE', #111, #299, #7 ) ;
#82 = PERSON_AND_ORGANIZATION ( #168, #106 ) ;
#83 = VERTEX_POINT ( 'NONE', #229 ) ;
#84 = EDGE_LOOP ( 'NONE', ( #142 ) ) ;
#85 = DATE_AND_TIME ( #109, #264 ) ;
#86 = CARTESIAN_POINT ( 'NONE',  ( 2.793185071074506684E-14, 8.274924600836779837E-33, 8.000000000000000000 ) ) ;
#87 = CARTESIAN_POINT ( 'NONE',  ( -4.101216891472777846E-31, 1.438513241607461416E-32, -1.174635203071620710E-16 ) ) ;
#88 = CYLINDRICAL_SURFACE ( 'NONE', #166, 0.9499999999999992895 ) ;
#89 = DIRECTION ( 'NONE',  ( -3.491481338843133355E-15, 1.224646799147353207E-16, -1.000000000000000000 ) ) ;
#90 = PERSON_AND_ORGANIZATION ( #168, #106 ) ;
#91 = CIRCLE ( 'NONE', #64, 1.500000000000001554 ) ;
#92 = DIRECTION ( 'NONE',  ( -4.275831445896958607E-31, -1.000000000000000000, -1.224646799147353207E-16 ) ) ;
#93 = CARTESIAN_POINT ( 'NONE',  ( 8.728703347107831416E-16, -3.061616997868382402E-17, 0.2499999999999999445 ) ) ;
#94 = APPROVAL_ROLE ( '' ) ;
#95 = DIRECTION ( 'NONE',  ( 4.275831445896958607E-31, 1.000000000000000000, 1.224646799147353207E-16 ) ) ;
#96 = DIRECTION ( 'NONE',  ( -3.490584403057976236E-31, -1.000000000000000000, -9.825121635573229372E-17 ) ) ;
#97 = AXIS2_PLACEMENT_3D ( 'NONE', #86, #292, #92 ) ;
#98 = MANIFOLD_SOLID_BREP ( 'Corps-Déplacer/Copier1[2]', #76 ) ;
#99 = DIRECTION ( 'NONE',  ( 0.0000000000000000000, 0.0000000000000000000, 1.000000000000000000 ) ) ;
#100 = DATE_AND_TIME ( #3, #52 ) ;
#101 = EDGE_CURVE ( 'NONE', #35, #35, #50, .T. ) ;
#102 = AXIS2_PLACEMENT_3D ( 'NONE', #203, #67, #9 ) ;
#103 = ORIENTED_EDGE ( 'NONE', *, *, #31, .F. ) ;
#104 = ADVANCED_FACE ( 'NONE', ( #178, #41 ), #284, .F. ) ;
#105 = AXIS2_PLACEMENT_3D ( 'NONE', #159, #273, #257 ) ;
#106 = ORGANIZATION ( 'UNSPECIFIED', 'UNSPECIFIED', '' ) ;
#107 = ORIENTED_EDGE ( 'NONE', *, *, #200, .F. ) ;
#108 = DIRECTION ( 'NONE',  ( -3.491481338843133355E-15, 1.224646799147353207E-16, -1.000000000000000000 ) ) ;
#109 = CALENDAR_DATE ( 2021, 30, 11 ) ;
#110 = APPROVAL_PERSON_ORGANIZATION ( #48, #287, #267 ) ;
#111 = CARTESIAN_POINT ( 'NONE',  ( 2.793185071074506684E-14, -9.797174393178825657E-16, 8.000000000000000000 ) ) ;
#112 = CARTESIAN_POINT ( 'NONE',  ( 0.0000000000000000000, 0.0000000000000000000, 0.0000000000000000000 ) ) ;
#113 = FACE_BOUND ( 'NONE', #224, .T. ) ;
#114 = FACE_OUTER_BOUND ( 'NONE', #63, .T. ) ;
#115 = CARTESIAN_POINT ( 'NONE',  ( 2.793185071074506684E-14, 1.103499999999998593, 8.000000000000000000 ) ) ;
#116 = DIRECTION ( 'NONE',  ( 4.275831445896958607E-31, 1.000000000000000000, 1.224646799147352961E-16 ) ) ;
#117 = AXIS2_PLACEMENT_3D ( 'NONE', #66, #254, #251 ) ;
#118 = DIRECTION ( 'NONE',  ( 3.491481338843133355E-15, -1.224646799147353207E-16, 1.000000000000000000 ) ) ;
#119 = PRODUCT_DEFINITION_SHAPE ( 'NONE', 'NONE',  #233 ) ;
#120 = ORIENTED_EDGE ( 'NONE', *, *, #19, .F. ) ;
#121 = COORDINATED_UNIVERSAL_TIME_OFFSET ( 1, 0, .AHEAD. ) ;
#122 = APPROVAL ( #157, 'UNSPECIFIED' ) ;
#123 = PERSON_AND_ORGANIZATION ( #168, #106 ) ;
#124 = CIRCLE ( 'NONE', #221, 1.103499999999998593 ) ;
#125 =( NAMED_UNIT ( * ) SI_UNIT ( $, .STERADIAN. ) SOLID_ANGLE_UNIT ( ) );
#126 = ADVANCED_FACE ( 'NONE', ( #68, #69 ), #60, .T. ) ;
#127 = EDGE_LOOP ( 'NONE', ( #15 ) ) ;
#128 = CLOSED_SHELL ( 'NONE', ( #283, #215, #187, #104, #130, #53, #193, #212 ) ) ;
#129 = CONICAL_SURFACE ( 'NONE', #102, 0.9499999999999985123, 0.5235987755982915992 ) ;
#130 = ADVANCED_FACE ( 'NONE', ( #211, #135 ), #170, .T. ) ;
#131 = CARTESIAN_POINT ( 'NONE',  ( 0.0000000000000000000, 0.0000000000000000000, 0.0000000000000000000 ) ) ;
#132 = ORIENTED_EDGE ( 'NONE', *, *, #253, .F. ) ;
#133 = APPROVAL_STATUS ( 'not_yet_approved' ) ;
#134 = FACE_OUTER_BOUND ( 'NONE', #243, .T. ) ;
#135 = FACE_OUTER_BOUND ( 'NONE', #78, .T. ) ;
#136 = PERSON_AND_ORGANIZATION ( #168, #106 ) ;
#137 = DIRECTION ( 'NONE',  ( -4.275831445896958607E-31, -1.000000000000000000, -1.224646799147353207E-16 ) ) ;
#138 = EDGE_LOOP ( 'NONE', ( #285 ) ) ;
#139 = VERTEX_POINT ( 'NONE', #115 ) ;
#140 = CARTESIAN_POINT ( 'NONE',  ( 6.284666409917640040E-14, -2.168404344971008868E-15, 18.00000000000000000 ) ) ;
#141 =( LENGTH_UNIT ( ) NAMED_UNIT ( * ) SI_UNIT ( .MILLI., .METRE. ) );
#142 = ORIENTED_EDGE ( 'NONE', *, *, #145, .F. ) ;
#143 = LOCAL_TIME ( 7, 44, 56.00000000000000000, #70 ) ;
#144 = CARTESIAN_POINT ( 'NONE',  ( 7.434824022358248687E-14, -2.607785222825145383E-15, 21.29418232784168552 ) ) ;
#145 = EDGE_CURVE ( 'NONE', #39, #39, #194, .T. ) ;
#146 = CARTESIAN_POINT ( 'NONE',  ( 0.0000000000000000000, 0.0000000000000000000, 0.0000000000000000000 ) ) ;
#147 = SECURITY_CLASSIFICATION ( '', '', #11 ) ;
#148 = EDGE_LOOP ( 'NONE', ( #184 ) ) ;
#149 = CC_DESIGN_PERSON_AND_ORGANIZATION_ASSIGNMENT ( #82, #161, ( #79 ) ) ;
#150 = CONICAL_SURFACE ( 'NONE', #171, 1.103499999999998593, 0.5235987755982922653 ) ;
#151 = EDGE_LOOP ( 'NONE', ( #288 ) ) ;
#152 = PLANE ( 'NONE',  #259 ) ;
#153 = ORIENTED_EDGE ( 'NONE', *, *, #196, .T. ) ;
#154 = VERTEX_POINT ( 'NONE', #156 ) ;
#155 = FACE_OUTER_BOUND ( 'NONE', #151, .T. ) ;
#156 = CARTESIAN_POINT ( 'NONE',  ( 6.284666409917640040E-14, 0.9499999999999977351, 18.00000000000000000 ) ) ;
#157 = APPROVAL_STATUS ( 'not_yet_approved' ) ;
#158 = CARTESIAN_POINT ( 'NONE',  ( 7.434824022358248687E-14, 1.499999999999994005, 21.29418232784168552 ) ) ;
#159 = CARTESIAN_POINT ( 'NONE',  ( 2.793185071074506684E-14, 8.274924600836779837E-33, 8.000000000000000000 ) ) ;
#160 = DATE_AND_TIME ( #277, #1 ) ;
#161 = PERSON_AND_ORGANIZATION_ROLE ( 'design_owner' ) ;
#162 = CARTESIAN_POINT ( 'NONE',  ( 2.793185071074506684E-14, -9.797174393178825657E-16, 8.000000000000000000 ) ) ;
#163 = CARTESIAN_POINT ( 'NONE',  ( 0.0000000000000000000, 0.0000000000000000000, 0.0000000000000000000 ) ) ;
#164 = DIRECTION ( 'NONE',  ( -3.491481338843133355E-15, 1.224646799147353207E-16, -1.000000000000000000 ) ) ;
#165 = ADVANCED_FACE ( 'NONE', ( #270, #155 ), #150, .T. ) ;
#166 = AXIS2_PLACEMENT_3D ( 'NONE', #131, #175, #223 ) ;
#167 = DIRECTION ( 'NONE',  ( 3.491481338843133355E-15, -1.224646799147353207E-16, 1.000000000000000000 ) ) ;
#168 = PERSON ( 'UNSPECIFIED', 'UNSPECIFIED', 'UNSPECIFIED', ('UNSPECIFIED'), ('UNSPECIFIED'), ('UNSPECIFIED') ) ;
#169 = ADVANCED_FACE ( 'NONE', ( #74 ), #282, .F. ) ;
#170 = CONICAL_SURFACE ( 'NONE', #218, 1.499999999999996669, 0.1745329251994261477 ) ;
#171 = AXIS2_PLACEMENT_3D ( 'NONE', #247, #303, #96 ) ;
#172 = EDGE_LOOP ( 'NONE', ( #207 ) ) ;
#173 = CC_DESIGN_DATE_AND_TIME_ASSIGNMENT ( #160, #280, ( #147 ) ) ;
#174 = EDGE_LOOP ( 'NONE', ( #263 ) ) ;
#175 = DIRECTION ( 'NONE',  ( -3.491481338843133355E-15, 1.224646799147353207E-16, -1.000000000000000000 ) ) ;
#176 = AXIS2_PLACEMENT_3D ( 'NONE', #87, #209, #95 ) ;
#177 = FACE_OUTER_BOUND ( 'NONE', #205, .T. ) ;
#178 = FACE_OUTER_BOUND ( 'NONE', #294, .T. ) ;
#179 = APPROVAL_DATE_TIME ( #85, #287 ) ;
#180 = CARTESIAN_POINT ( 'NONE',  ( 1.745740669421566678E-13, -6.123233995736766085E-15, 50.00000000000000000 ) ) ;
#181 = ORIENTED_EDGE ( 'NONE', *, *, #101, .T. ) ;
#182 = PERSON_AND_ORGANIZATION_ROLE ( 'creator' ) ;
#183 = DIRECTION ( 'NONE',  ( 4.275831445896958607E-31, 1.000000000000000000, 1.224646799147353207E-16 ) ) ;
#184 = ORIENTED_EDGE ( 'NONE', *, *, #253, .T. ) ;
#185 = CARTESIAN_POINT ( 'NONE',  ( 8.728703347107835360E-16, 1.103499999999998593, 0.2500000000000000555 ) ) ;
#186 = DIRECTION ( 'NONE',  ( -3.491481338843133355E-15, 1.224646799147353207E-16, -1.000000000000000000 ) ) ;
#187 = ADVANCED_FACE ( 'NONE', ( #177, #59 ), #88, .T. ) ;
#188 = PLANE ( 'NONE',  #105 ) ;
#189 = DATE_TIME_ROLE ( 'creation_date' ) ;
#190 = CARTESIAN_POINT ( 'NONE',  ( -2.050608445736388923E-31, 7.192566208037307079E-33, -5.873176015358103549E-17 ) ) ;
#191 = AXIS2_PLACEMENT_3D ( 'NONE', #235, #44, #18 ) ;
#192 = APPROVAL_PERSON_ORGANIZATION ( #123, #122, #94 ) ;
#193 = ADVANCED_FACE ( 'NONE', ( #265, #113 ), #25, .T. ) ;
#194 = CIRCLE ( 'NONE', #6, 1.499999999999996669 ) ;
#195 = MANIFOLD_SOLID_BREP ( 'Corps-Déplacer/Copier1[1]', #128 ) ;
#196 = EDGE_CURVE ( 'NONE', #83, #83, #91, .T. ) ;
#197 = EDGE_LOOP ( 'NONE', ( #120 ) ) ;
#198 = CIRCLE ( 'NONE', #176, 0.9591624327025942698 ) ;
#199 = CIRCLE ( 'NONE', #240, 1.103499999999999703 ) ;
#200 = EDGE_CURVE ( 'NONE', #14, #14, #236, .T. ) ;
#201 = ORIENTED_EDGE ( 'NONE', *, *, #77, .T. ) ;
#202 = EDGE_LOOP ( 'NONE', ( #181 ) ) ;
#203 = CARTESIAN_POINT ( 'NONE',  ( 2.886013015238226509E-14, -1.012277099146737952E-15, 8.265869798961828607 ) ) ;
#204 = AXIS2_PLACEMENT_3D ( 'NONE', #146, #99, #46 ) ;
#205 = EDGE_LOOP ( 'NONE', ( #241 ) ) ;
#206 = FACE_OUTER_BOUND ( 'NONE', #57, .T. ) ;
#207 = ORIENTED_EDGE ( 'NONE', *, *, #4, .F. ) ;
#208 = FACE_OUTER_BOUND ( 'NONE', #54, .T. ) ;
#209 = DIRECTION ( 'NONE',  ( -3.491481338843133355E-15, 1.224646799147353207E-16, -1.000000000000000000 ) ) ;
#210 = DIRECTION ( 'NONE',  ( -3.491481338843133355E-15, 1.224646799147353207E-16, -1.000000000000000000 ) ) ;
#211 = FACE_BOUND ( 'NONE', #197, .T. ) ;
#212 = ADVANCED_FACE ( 'NONE', ( #208 ), #152, .F. ) ;
#213 = FACE_OUTER_BOUND ( 'NONE', #266, .T. ) ;
#214 = DIRECTION ( 'NONE',  ( 0.0000000000000000000, 1.000000000000000000, 0.0000000000000000000 ) ) ;
#215 = ADVANCED_FACE ( 'NONE', ( #134, #225 ), #129, .T. ) ;
#216 = COORDINATED_UNIVERSAL_TIME_OFFSET ( 1, 0, .AHEAD. ) ;
#217 = CIRCLE ( 'NONE', #47, 0.9499999999999998446 ) ;
#218 = AXIS2_PLACEMENT_3D ( 'NONE', #301, #118, #302 ) ;
#219 = CC_DESIGN_PERSON_AND_ORGANIZATION_ASSIGNMENT ( #295, #182, ( #233 ) ) ;
#220 = CC_DESIGN_PERSON_AND_ORGANIZATION_ASSIGNMENT ( #248, #80, ( #55 ) ) ;
#221 = AXIS2_PLACEMENT_3D ( 'NONE', #93, #279, #228 ) ;
#222 = AXIS2_PLACEMENT_3D ( 'NONE', #180, #210, #274 ) ;
#223 = DIRECTION ( 'NONE',  ( 4.275831445896957731E-31, 1.000000000000000000, 1.224646799147353207E-16 ) ) ;
#224 = EDGE_LOOP ( 'NONE', ( #201 ) ) ;
#225 = FACE_BOUND ( 'NONE', #202, .T. ) ;
#226 = CC_DESIGN_PERSON_AND_ORGANIZATION_ASSIGNMENT ( #136, #34, ( #55 ) ) ;
#227 = CC_DESIGN_APPROVAL ( #43, ( #233 ) ) ;
#228 = DIRECTION ( 'NONE',  ( 3.490584403057976236E-31, 1.000000000000000000, 9.825121635573229372E-17 ) ) ;
#229 = CARTESIAN_POINT ( 'NONE',  ( 1.735266225405037467E-13, 1.499999999999995559, 49.70000000000000284 ) ) ;
#230 = FACE_OUTER_BOUND ( 'NONE', #84, .T. ) ;
#231 = VERTEX_POINT ( 'NONE', #244 ) ;
#232 = CARTESIAN_POINT ( 'NONE',  ( 6.405924284287273902E-14, -2.246895775456748746E-15, 18.34729635533384240 ) ) ;
#233 = PRODUCT_DEFINITION ( 'UNKNOWN', '', #55, #250 ) ;
#234 = DATE_AND_TIME ( #246, #32 ) ;
#235 = CARTESIAN_POINT ( 'NONE',  ( 1.745740669421566678E-13, -6.123233995736766085E-15, 50.00000000000000000 ) ) ;
#236 = CIRCLE ( 'NONE', #81, 1.103499999999999703 ) ;
#237 = CYLINDRICAL_SURFACE ( 'NONE', #73, 1.499999999999999112 ) ;
#238 = CALENDAR_DATE ( 2021, 30, 11 ) ;
#239 = PERSON_AND_ORGANIZATION_ROLE ( 'classification_officer' ) ;
#240 = AXIS2_PLACEMENT_3D ( 'NONE', #162, #40, #272 ) ;
#241 = ORIENTED_EDGE ( 'NONE', *, *, #101, .F. ) ;
#242 = CC_DESIGN_PERSON_AND_ORGANIZATION_ASSIGNMENT ( #90, #239, ( #147 ) ) ;
#243 = EDGE_LOOP ( 'NONE', ( #107 ) ) ;
#244 = CARTESIAN_POINT ( 'NONE',  ( 6.405924284287273902E-14, 0.9803844939755782528, 18.34729635533384240 ) ) ;
#245 = VERTEX_POINT ( 'NONE', #249 ) ;
#246 = CALENDAR_DATE ( 2021, 30, 11 ) ;
#247 = CARTESIAN_POINT ( 'NONE',  ( 8.728703347107831416E-16, -3.061616997868382402E-17, 0.2499999999999999445 ) ) ;
#248 = PERSON_AND_ORGANIZATION ( #168, #106 ) ;
#249 = CARTESIAN_POINT ( 'NONE',  ( 1.745740669421566678E-13, 1.199999999999995515, 50.00000000000000000 ) ) ;
#250 = DESIGN_CONTEXT ( 'detailed design', #30, 'design' ) ;
#251 = DIRECTION ( 'NONE',  ( 0.0000000000000000000, 1.000000000000000000, 0.0000000000000000000 ) ) ;
#252 = CARTESIAN_POINT ( 'NONE',  ( 1.745740669421566678E-13, 8.998558695971067645E-33, 50.00000000000000000 ) ) ;
#253 = EDGE_CURVE ( 'NONE', #139, #139, #199, .T. ) ;
#254 = DIRECTION ( 'NONE',  ( -3.491481338843133355E-15, 1.224646799147353207E-16, -1.000000000000000000 ) ) ;
#255 = CARTESIAN_POINT ( 'NONE',  ( 6.284666409917640040E-14, -2.204364238465235428E-15, 18.00000000000000000 ) ) ;
#256 = APPROVAL_ROLE ( '' ) ;
#257 = DIRECTION ( 'NONE',  ( -4.275831445896958607E-31, -1.000000000000000000, -1.224646799147353207E-16 ) ) ;
#258 = APPLICATION_CONTEXT ( 'configuration controlled 3d designs of mechanical parts and assemblies' ) ;
#259 = AXIS2_PLACEMENT_3D ( 'NONE', #252, #297, #183 ) ;
#260 = APPROVAL_DATE_TIME ( #100, #122 ) ;
#261 = ORIENTED_EDGE ( 'NONE', *, *, #19, .T. ) ;
#262 = CC_DESIGN_APPROVAL ( #122, ( #147 ) ) ;
#263 = ORIENTED_EDGE ( 'NONE', *, *, #31, .T. ) ;
#264 = LOCAL_TIME ( 7, 44, 56.00000000000000000, #289 ) ;
#265 = FACE_OUTER_BOUND ( 'NONE', #29, .T. ) ;
#266 = EDGE_LOOP ( 'NONE', ( #132 ) ) ;
#267 = APPROVAL_ROLE ( '' ) ;
#268 = APPLICATION_PROTOCOL_DEFINITION ( 'international standard', 'config_control_design', 1994, #30 ) ;
#269 = DIRECTION ( 'NONE',  ( 0.0000000000000000000, 1.000000000000000000, 0.0000000000000000000 ) ) ;
#270 = FACE_BOUND ( 'NONE', #172, .T. ) ;
#271 = APPROVAL_STATUS ( 'not_yet_approved' ) ;
#272 = DIRECTION ( 'NONE',  ( 0.0000000000000000000, 1.000000000000000000, 0.0000000000000000000 ) ) ;
#273 = DIRECTION ( 'NONE',  ( 3.491481338843133355E-15, -1.224646799147353207E-16, 1.000000000000000000 ) ) ;
#274 = DIRECTION ( 'NONE',  ( 0.0000000000000000000, 1.000000000000000000, 0.0000000000000000000 ) ) ;
#275 = APPROVAL_PERSON_ORGANIZATION ( #58, #43, #256 ) ;
#276 = DIRECTION ( 'NONE',  ( 0.0000000000000000000, 1.000000000000000000, 0.0000000000000000000 ) ) ;
#277 = CALENDAR_DATE ( 2021, 30, 11 ) ;
#278 = CARTESIAN_POINT ( 'NONE',  ( 2.886013015238226509E-14, 0.9499999999999975131, 8.265869798961828607 ) ) ;
#279 = DIRECTION ( 'NONE',  ( -3.491481338843133355E-15, 1.224646799147353207E-16, -1.000000000000000000 ) ) ;
#280 = DATE_TIME_ROLE ( 'classification_date' ) ;
#281 = DIRECTION ( 'NONE',  ( -3.491481338843133355E-15, 1.224646799147353207E-16, -1.000000000000000000 ) ) ;
#282 = PLANE ( 'NONE',  #291 ) ;
#283 = ADVANCED_FACE ( 'NONE', ( #206 ), #293, .F. ) ;
#284 = TOROIDAL_SURFACE ( 'NONE', #17, 2.949999999999999734, 2.000000000000000000 ) ;
#285 = ORIENTED_EDGE ( 'NONE', *, *, #45, .F. ) ;
#286 =( NAMED_UNIT ( * ) PLANE_ANGLE_UNIT ( ) SI_UNIT ( $, .RADIAN. ) );
#287 = APPROVAL ( #133, 'UNSPECIFIED' ) ;
#288 = ORIENTED_EDGE ( 'NONE', *, *, #45, .T. ) ;
#289 = COORDINATED_UNIVERSAL_TIME_OFFSET ( 1, 0, .AHEAD. ) ;
#290 = CIRCLE ( 'NONE', #191, 1.200000000000001732 ) ;
#291 = AXIS2_PLACEMENT_3D ( 'NONE', #190, #167, #137 ) ;
#292 = DIRECTION ( 'NONE',  ( 3.491481338843133355E-15, -1.224646799147353207E-16, 1.000000000000000000 ) ) ;
#293 = PLANE ( 'NONE',  #97 ) ;
#294 = EDGE_LOOP ( 'NONE', ( #103 ) ) ;
#295 = PERSON_AND_ORGANIZATION ( #168, #106 ) ;
#296 = MECHANICAL_CONTEXT ( 'NONE', #258, 'mechanical' ) ;
#297 = DIRECTION ( 'NONE',  ( -3.491481338843133355E-15, 1.224646799147353207E-16, -1.000000000000000000 ) ) ;
#298 = DIRECTION ( 'NONE',  ( 4.275831445896958607E-31, 1.000000000000000000, 1.224646799147353454E-16 ) ) ;
#299 = DIRECTION ( 'NONE',  ( -3.491481338843133355E-15, 1.224646799147353207E-16, -1.000000000000000000 ) ) ;
#300 = AXIS2_PLACEMENT_3D ( 'NONE', #163, #37, #116 ) ;
#301 = CARTESIAN_POINT ( 'NONE',  ( 7.434824022358248687E-14, -2.607785222825145383E-15, 21.29418232784168552 ) ) ;
#302 = DIRECTION ( 'NONE',  ( 0.0000000000000000000, -1.000000000000000000, 0.0000000000000000000 ) ) ;
#303 = DIRECTION ( 'NONE',  ( 3.491481338843133355E-15, -1.224646799147353207E-16, 1.000000000000000000 ) ) ;
ENDSEC;
END-ISO-10303-21;
