ISO-10303-21;
HEADER;
FILE_DESCRIPTION (( 'STEP AP203' ),
    '1' );
FILE_NAME ('200138.step',
    '2021-11-30T09:57:05',
    ( '' ),
    ( '' ),
    'SwSTEP 2.0',
    'SolidWorks 2019',
    '' );
FILE_SCHEMA (( 'CONFIG_CONTROL_DESIGN' ));
ENDSEC;

DATA;
#1 = PERSON_AND_ORGANIZATION ( #130, #249 ) ;
#2 = CARTESIAN_POINT ( 'NONE',  ( 0.0000000000000000000, 0.0000000000000000000, 0.0000000000000000000 ) ) ;
#3 = AXIS2_PLACEMENT_3D ( 'NONE', #109, #208, #301 ) ;
#4 = ORIENTED_EDGE ( 'NONE', *, *, #294, .T. ) ;
#5 = CIRCLE ( 'NONE', #63, 1.500000000000001332 ) ;
#6 = DIRECTION ( 'NONE',  ( -3.491481338843133355E-15, 1.224646799147353454E-16, -1.000000000000000000 ) ) ;
#7 = CC_DESIGN_PERSON_AND_ORGANIZATION_ASSIGNMENT ( #122, #75, ( #96 ) ) ;
#8 = FACE_OUTER_BOUND ( 'NONE', #98, .T. ) ;
#9 = EDGE_LOOP ( 'NONE', ( #102 ) ) ;
#10 = ADVANCED_FACE ( 'NONE', ( #265 ), #267, .T. ) ;
#11 = DIRECTION ( 'NONE',  ( 0.0000000000000000000, 1.000000000000000000, 0.0000000000000000000 ) ) ;
#12 = AXIS2_PLACEMENT_3D ( 'NONE', #168, #120, #30 ) ;
#13 = DIRECTION ( 'NONE',  ( 3.491481338843133355E-15, -1.224646799147353454E-16, 1.000000000000000000 ) ) ;
#14 = FACE_OUTER_BOUND ( 'NONE', #184, .T. ) ;
#15 = DIRECTION ( 'NONE',  ( 0.0000000000000000000, 1.000000000000000000, 0.0000000000000000000 ) ) ;
#16 = PRODUCT_RELATED_PRODUCT_CATEGORY ( 'detail', '', ( #85 ) ) ;
#17 = CC_DESIGN_APPROVAL ( #165, ( #142 ) ) ;
#18 = FACE_OUTER_BOUND ( 'NONE', #149, .T. ) ;
#19 = CARTESIAN_POINT ( 'NONE',  ( 8.728703347107833388E-14, -3.061616997868383831E-15, 25.00000000000000000 ) ) ;
#20 = MANIFOLD_SOLID_BREP ( 'Corps-Déplacer/Copier1[2]', #210 ) ;
#21 = ORIENTED_EDGE ( 'NONE', *, *, #207, .T. ) ;
#22 = VERTEX_POINT ( 'NONE', #235 ) ;
#23 = CARTESIAN_POINT ( 'NONE',  ( -3.785471652766323589E-31, 1.259162432702594536, -1.084202172485504681E-16 ) ) ;
#24 = PERSON_AND_ORGANIZATION_ROLE ( 'creator' ) ;
#25 =( NAMED_UNIT ( * ) SI_UNIT ( $, .STERADIAN. ) SOLID_ANGLE_UNIT ( ) );
#26 = DATE_TIME_ROLE ( 'creation_date' ) ;
#27 = DIRECTION ( 'NONE',  ( -4.275831445896959482E-31, -1.000000000000000000, -1.224646799147353454E-16 ) ) ;
#28 = APPROVAL ( #278, 'UNSPECIFIED' ) ;
#29 = COORDINATED_UNIVERSAL_TIME_OFFSET ( 1, 0, .AHEAD. ) ;
#30 = DIRECTION ( 'NONE',  ( 0.0000000000000000000, 1.000000000000000000, 0.0000000000000000000 ) ) ;
#31 = CYLINDRICAL_SURFACE ( 'NONE', #111, 1.199999999999999289 ) ;
#32 = DATE_AND_TIME ( #72, #271 ) ;
#33 = DIRECTION ( 'NONE',  ( 4.275831445896958607E-31, 1.000000000000000000, 1.224646799147353454E-16 ) ) ;
#34 = CONICAL_SURFACE ( 'NONE', #275, 1.499999999999996003, 0.1745329251994272579 ) ;
#35 = DIRECTION ( 'NONE',  ( -4.116700985508879885E-31, -1.000000000000000000, -1.158748314020846569E-16 ) ) ;
#36 = VERTEX_POINT ( 'NONE', #90 ) ;
#37 = DIRECTION ( 'NONE',  ( -3.491481338843133355E-15, 1.224646799147353454E-16, -1.000000000000000000 ) ) ;
#38 = AXIS2_PLACEMENT_3D ( 'NONE', #273, #178, #272 ) ;
#39 = FACE_OUTER_BOUND ( 'NONE', #65, .T. ) ;
#40 = ORIENTED_EDGE ( 'NONE', *, *, #217, .F. ) ;
#41 = COORDINATED_UNIVERSAL_TIME_OFFSET ( 1, 0, .AHEAD. ) ;
#42 = VERTEX_POINT ( 'NONE', #118 ) ;
#43 = CIRCLE ( 'NONE', #239, 1.403499999999998638 ) ;
#44 = CALENDAR_DATE ( 2021, 30, 11 ) ;
#45 = PRODUCT_DEFINITION_SHAPE ( 'NONE', 'NONE',  #179 ) ;
#46 = EDGE_CURVE ( 'NONE', #36, #36, #43, .T. ) ;
#47 = DATE_AND_TIME ( #260, #110 ) ;
#48 = APPROVAL_PERSON_ORGANIZATION ( #1, #28, #258 ) ;
#49 = EDGE_LOOP ( 'NONE', ( #244 ) ) ;
#50 = DIRECTION ( 'NONE',  ( -3.491481338843133355E-15, 1.224646799147353454E-16, -1.000000000000000000 ) ) ;
#51 = COORDINATED_UNIVERSAL_TIME_OFFSET ( 1, 0, .AHEAD. ) ;
#52 = AXIS2_PLACEMENT_3D ( 'NONE', #263, #50, #221 ) ;
#53 = CYLINDRICAL_SURFACE ( 'NONE', #52, 1.403499999999999304 ) ;
#54 = PERSON_AND_ORGANIZATION_ROLE ( 'creator' ) ;
#55 = ORIENTED_EDGE ( 'NONE', *, *, #207, .F. ) ;
#56 = EDGE_LOOP ( 'NONE', ( #290 ) ) ;
#57 = CARTESIAN_POINT ( 'NONE',  ( 2.119329172677781757E-13, -7.433606070824434221E-15, 60.69999999999999574 ) ) ;
#58 = AXIS2_PLACEMENT_3D ( 'NONE', #254, #128, #83 ) ;
#59 = CC_DESIGN_PERSON_AND_ORGANIZATION_ASSIGNMENT ( #94, #54, ( #96 ) ) ;
#60 = DIRECTION ( 'NONE',  ( 0.0000000000000000000, 1.000000000000000000, 0.0000000000000000000 ) ) ;
#61 = FACE_OUTER_BOUND ( 'NONE', #277, .T. ) ;
#62 = CARTESIAN_POINT ( 'NONE',  ( 3.491481338843133355E-14, -1.224646799147353454E-15, 10.00000000000000000 ) ) ;
#63 = AXIS2_PLACEMENT_3D ( 'NONE', #57, #180, #15 ) ;
#64 = APPROVAL_STATUS ( 'not_yet_approved' ) ;
#65 = EDGE_LOOP ( 'NONE', ( #209 ) ) ;
#66 = CC_DESIGN_DATE_AND_TIME_ASSIGNMENT ( #68, #286, ( #142 ) ) ;
#67 =( LENGTH_UNIT ( ) NAMED_UNIT ( * ) SI_UNIT ( .MILLI., .METRE. ) );
#68 = DATE_AND_TIME ( #150, #82 ) ;
#69 = AXIS2_PLACEMENT_3D ( 'NONE', #285, #78, #125 ) ;
#70 = DIRECTION ( 'NONE',  ( 0.0000000000000000000, 1.000000000000000000, 0.0000000000000000000 ) ) ;
#71 = DIRECTION ( 'NONE',  ( -3.491481338843133355E-15, 1.224646799147353454E-16, -1.000000000000000000 ) ) ;
#72 = CALENDAR_DATE ( 2021, 30, 11 ) ;
#73 = DIRECTION ( 'NONE',  ( 4.116700985508879885E-31, 1.000000000000000000, 1.158748314020846569E-16 ) ) ;
#74 = CC_DESIGN_DATE_AND_TIME_ASSIGNMENT ( #238, #26, ( #179 ) ) ;
#75 = PERSON_AND_ORGANIZATION_ROLE ( 'design_supplier' ) ;
#76 = CONICAL_SURFACE ( 'NONE', #174, 1.403499999999998638, 0.5235987755982918213 ) ;
#77 = EDGE_LOOP ( 'NONE', ( #295 ) ) ;
#78 = DIRECTION ( 'NONE',  ( -3.491481338843133355E-15, 1.224646799147353454E-16, -1.000000000000000000 ) ) ;
#79 = FACE_OUTER_BOUND ( 'NONE', #88, .T. ) ;
#80 = CC_DESIGN_PERSON_AND_ORGANIZATION_ASSIGNMENT ( #93, #92, ( #85 ) ) ;
#81 = DIRECTION ( 'NONE',  ( -4.275831445896959482E-31, -1.000000000000000000, -1.224646799147353454E-16 ) ) ;
#82 = LOCAL_TIME ( 10, 57, 5.000000000000000000, #51 ) ;
#83 = DIRECTION ( 'NONE',  ( 0.0000000000000000000, 1.000000000000000000, 0.0000000000000000000 ) ) ;
#84 = DIRECTION ( 'NONE',  ( -3.491481338843133355E-15, 1.224646799147353454E-16, -1.000000000000000000 ) ) ;
#85 = PRODUCT ( '200138', '200138', '', ( #162 ) ) ;
#86 = CARTESIAN_POINT ( 'NONE',  ( 9.383831593535530478E-14, -3.291405054041850802E-15, 26.87636187293719559 ) ) ;
#87 = LOCAL_TIME ( 10, 57, 5.000000000000000000, #41 ) ;
#88 = EDGE_LOOP ( 'NONE', ( #198 ) ) ;
#89 = DIRECTION ( 'NONE',  ( 1.000000000000000000, 0.0000000000000000000, 0.0000000000000000000 ) ) ;
#90 = CARTESIAN_POINT ( 'NONE',  ( 8.728703347107833388E-16, 1.403499999999998638, 0.2500000000000000000 ) ) ;
#91 = CONICAL_SURFACE ( 'NONE', #215, 1.199999999999998179, 0.5235987755982934866 ) ;
#92 = PERSON_AND_ORGANIZATION_ROLE ( 'design_owner' ) ;
#93 = PERSON_AND_ORGANIZATION ( #130, #249 ) ;
#94 = PERSON_AND_ORGANIZATION ( #130, #249 ) ;
#95 = ORIENTED_EDGE ( 'NONE', *, *, #256, .F. ) ;
#96 = PRODUCT_DEFINITION_FORMATION_WITH_SPECIFIED_SOURCE ( 'ANY', '', #85, .NOT_KNOWN. ) ;
#97 = PERSON_AND_ORGANIZATION ( #130, #249 ) ;
#98 = EDGE_LOOP ( 'NONE', ( #233 ) ) ;
#99 = FACE_OUTER_BOUND ( 'NONE', #9, .T. ) ;
#100 = ORIENTED_EDGE ( 'NONE', *, *, #193, .T. ) ;
#101 = CC_DESIGN_APPROVAL ( #28, ( #179 ) ) ;
#102 = ORIENTED_EDGE ( 'NONE', *, *, #217, .T. ) ;
#103 = CARTESIAN_POINT ( 'NONE',  ( 3.491481338843133355E-14, 1.052456427482957172E-32, 10.00000000000000000 ) ) ;
#104 = CARTESIAN_POINT ( 'NONE',  ( -4.584718989004095428E-31, 1.608102948284500103E-32, -1.313115707650665886E-16 ) ) ;
#105 = APPLICATION_CONTEXT ( 'configuration controlled 3d designs of mechanical parts and assemblies' ) ;
#106 = CARTESIAN_POINT ( 'NONE',  ( 8.728703347107833388E-14, -3.035766082959412415E-15, 25.00000000000000000 ) ) ;
#107 = APPROVAL_PERSON_ORGANIZATION ( #97, #165, #170 ) ;
#108 = FACE_OUTER_BOUND ( 'NONE', #268, .T. ) ;
#109 = CARTESIAN_POINT ( 'NONE',  ( 2.129803616694311221E-13, 8.998558695971049855E-33, 61.00000000000000000 ) ) ;
#110 = LOCAL_TIME ( 10, 57, 5.000000000000000000, #164 ) ;
#111 = AXIS2_PLACEMENT_3D ( 'NONE', #222, #134, #248 ) ;
#112 =( NAMED_UNIT ( * ) PLANE_ANGLE_UNIT ( ) SI_UNIT ( $, .RADIAN. ) );
#113 = EDGE_CURVE ( 'NONE', #115, #115, #167, .T. ) ;
#114 = DIRECTION ( 'NONE',  ( 0.0000000000000000000, 0.0000000000000000000, 1.000000000000000000 ) ) ;
#115 = VERTEX_POINT ( 'NONE', #140 ) ;
#116 = EDGE_CURVE ( 'NONE', #186, #186, #204, .T. ) ;
#117 = AXIS2_PLACEMENT_3D ( 'NONE', #19, #129, #60 ) ;
#118 = CARTESIAN_POINT ( 'NONE',  ( 2.129803616694311221E-13, 1.199999999999993960, 61.00000000000000000 ) ) ;
#119 = FACE_OUTER_BOUND ( 'NONE', #56, .T. ) ;
#120 = DIRECTION ( 'NONE',  ( -3.491481338843133355E-15, 1.224646799147353454E-16, -1.000000000000000000 ) ) ;
#121 = AXIS2_PLACEMENT_3D ( 'NONE', #104, #299, #81 ) ;
#122 = PERSON_AND_ORGANIZATION ( #130, #249 ) ;
#123 = EDGE_LOOP ( 'NONE', ( #135 ) ) ;
#124 = EDGE_LOOP ( 'NONE', ( #200 ) ) ;
#125 = DIRECTION ( 'NONE',  ( 0.0000000000000000000, 1.000000000000000000, 0.0000000000000000000 ) ) ;
#126 = CONICAL_SURFACE ( 'NONE', #58, 1.200000000000001510, 0.7853981633974453924 ) ;
#127 = FACE_BOUND ( 'NONE', #49, .T. ) ;
#128 = DIRECTION ( 'NONE',  ( -3.491481338843133355E-15, 1.224646799147353454E-16, -1.000000000000000000 ) ) ;
#129 = DIRECTION ( 'NONE',  ( -3.491481338843133355E-15, 1.224646799147353454E-16, -1.000000000000000000 ) ) ;
#130 = PERSON ( 'UNSPECIFIED', 'UNSPECIFIED', 'UNSPECIFIED', ('UNSPECIFIED'), ('UNSPECIFIED'), ('UNSPECIFIED') ) ;
#131 = PLANE ( 'NONE',  #3 ) ;
#132 = CC_DESIGN_SECURITY_CLASSIFICATION ( #142, ( #96 ) ) ;
#133 = EDGE_CURVE ( 'NONE', #22, #22, #194, .T. ) ;
#134 = DIRECTION ( 'NONE',  ( -3.491481338843133355E-15, 1.224646799147353454E-16, -1.000000000000000000 ) ) ;
#135 = ORIENTED_EDGE ( 'NONE', *, *, #133, .T. ) ;
#136 = CARTESIAN_POINT ( 'NONE',  ( 2.119329172677781757E-13, 1.499999999999994005, 60.69999999999999574 ) ) ;
#137 = ADVANCED_FACE ( 'NONE', ( #119, #171 ), #91, .T. ) ;
#138 = VERTEX_POINT ( 'NONE', #216 ) ;
#139 = CC_DESIGN_APPROVAL ( #169, ( #96 ) ) ;
#140 = CARTESIAN_POINT ( 'NONE',  ( 8.849961221477469775E-14, 1.230384493975577254, 25.34729635533384595 ) ) ;
#141 = PERSON_AND_ORGANIZATION ( #130, #249 ) ;
#142 = SECURITY_CLASSIFICATION ( '', '', #148 ) ;
#143 = PERSON_AND_ORGANIZATION ( #130, #249 ) ;
#144 = ORIENTED_EDGE ( 'NONE', *, *, #113, .T. ) ;
#145 = ADVANCED_FACE ( 'NONE', ( #218, #264 ), #53, .T. ) ;
#146 = EDGE_LOOP ( 'NONE', ( #197 ) ) ;
#147 = AXIS2_PLACEMENT_3D ( 'NONE', #205, #176, #297 ) ;
#148 = SECURITY_CLASSIFICATION_LEVEL ( 'unclassified' ) ;
#149 = EDGE_LOOP ( 'NONE', ( #144 ) ) ;
#150 = CALENDAR_DATE ( 2021, 30, 11 ) ;
#151 = DIRECTION ( 'NONE',  ( 3.491481338843133355E-15, -1.224646799147353454E-16, 1.000000000000000000 ) ) ;
#152 = ADVANCED_FACE ( 'NONE', ( #8, #99 ), #31, .T. ) ;
#153 = FACE_OUTER_BOUND ( 'NONE', #123, .T. ) ;
#154 = CLOSED_SHELL ( 'NONE', ( #189, #137, #152, #160, #240, #261, #227, #236 ) ) ;
#155 = FACE_BOUND ( 'NONE', #219, .T. ) ;
#156 = DIRECTION ( 'NONE',  ( -3.491481338843133355E-15, 1.224646799147353454E-16, -1.000000000000000000 ) ) ;
#157 = PLANE ( 'NONE',  #302 ) ;
#158 = CARTESIAN_POINT ( 'NONE',  ( -9.169437978008190856E-31, 3.216205896569000205E-32, -2.626231415301331771E-16 ) ) ;
#159 = APPROVAL_PERSON_ORGANIZATION ( #191, #169, #161 ) ;
#160 = ADVANCED_FACE ( 'NONE', ( #232, #18 ), #188, .F. ) ;
#161 = APPROVAL_ROLE ( '' ) ;
#162 = MECHANICAL_CONTEXT ( 'NONE', #212, 'mechanical' ) ;
#163 = CIRCLE ( 'NONE', #117, 1.200000000000000178 ) ;
#164 = COORDINATED_UNIVERSAL_TIME_OFFSET ( 1, 0, .AHEAD. ) ;
#165 = APPROVAL ( #195, 'UNSPECIFIED' ) ;
#166 = APPROVAL_DATE_TIME ( #223, #165 ) ;
#167 = CIRCLE ( 'NONE', #69, 1.230384493975580140 ) ;
#168 = CARTESIAN_POINT ( 'NONE',  ( 9.383831593535530478E-14, -3.291405054041850802E-15, 26.87636187293719559 ) ) ;
#169 = APPROVAL ( #64, 'UNSPECIFIED' ) ;
#170 = APPROVAL_ROLE ( '' ) ;
#171 = FACE_BOUND ( 'NONE', #124, .T. ) ;
#172 = CALENDAR_DATE ( 2021, 30, 11 ) ;
#173 = CARTESIAN_POINT ( 'NONE',  ( 3.614546398369628854E-14, -1.267812211363458297E-15, 10.35247233934027378 ) ) ;
#174 = AXIS2_PLACEMENT_3D ( 'NONE', #226, #13, #35 ) ;
#175 = ORIENTED_EDGE ( 'NONE', *, *, #256, .T. ) ;
#176 = DIRECTION ( 'NONE',  ( -3.491481338843133355E-15, 1.224646799147353454E-16, -1.000000000000000000 ) ) ;
#177 = AXIS2_PLACEMENT_3D ( 'NONE', #106, #37, #33 ) ;
#178 = DIRECTION ( 'NONE',  ( -3.491481338843133355E-15, 1.224646799147353454E-16, -1.000000000000000000 ) ) ;
#179 = PRODUCT_DEFINITION ( 'UNKNOWN', '', #96, #262 ) ;
#180 = DIRECTION ( 'NONE',  ( -3.491481338843133355E-15, 1.224646799147353454E-16, -1.000000000000000000 ) ) ;
#181 = CARTESIAN_POINT ( 'NONE',  ( 2.129803616694311221E-13, -7.470345474798856659E-15, 61.00000000000000000 ) ) ;
#182 = DIRECTION ( 'NONE',  ( 3.491481338843133355E-15, -1.224646799147353454E-16, 1.000000000000000000 ) ) ;
#183 = AXIS2_PLACEMENT_3D ( 'NONE', #158, #156, #255 ) ;
#184 = EDGE_LOOP ( 'NONE', ( #21 ) ) ;
#185 = APPROVAL_DATE_TIME ( #47, #28 ) ;
#186 = VERTEX_POINT ( 'NONE', #280 ) ;
#187 = VERTEX_POINT ( 'NONE', #136 ) ;
#188 = TOROIDAL_SURFACE ( 'NONE', #177, 3.200000000000000178, 2.000000000000000000 ) ;
#189 = ADVANCED_FACE ( 'NONE', ( #108 ), #157, .F. ) ;
#190 = CARTESIAN_POINT ( 'NONE',  ( 8.728703347107833388E-14, 1.199999999999997069, 25.00000000000000000 ) ) ;
#191 = PERSON_AND_ORGANIZATION ( #130, #249 ) ;
#192 = ORIENTED_EDGE ( 'NONE', *, *, #46, .T. ) ;
#193 = EDGE_CURVE ( 'NONE', #42, #42, #251, .T. ) ;
#194 = CIRCLE ( 'NONE', #12, 1.499999999999996003 ) ;
#195 = APPROVAL_STATUS ( 'not_yet_approved' ) ;
#196 = CARTESIAN_POINT ( 'NONE',  ( 8.728703347107827472E-16, -3.061616997868381785E-17, 0.2499999999999998335 ) ) ;
#197 = ORIENTED_EDGE ( 'NONE', *, *, #46, .F. ) ;
#198 = ORIENTED_EDGE ( 'NONE', *, *, #133, .F. ) ;
#199 = CC_DESIGN_PERSON_AND_ORGANIZATION_ASSIGNMENT ( #143, #291, ( #142 ) ) ;
#200 = ORIENTED_EDGE ( 'NONE', *, *, #116, .T. ) ;
#201 = DIRECTION ( 'NONE',  ( 0.0000000000000000000, 1.000000000000000000, 0.0000000000000000000 ) ) ;
#202 = FACE_BOUND ( 'NONE', #303, .T. ) ;
#203 = EDGE_CURVE ( 'NONE', #138, #138, #298, .T. ) ;
#204 = CIRCLE ( 'NONE', #220, 1.199999999999998179 ) ;
#205 = CARTESIAN_POINT ( 'NONE',  ( 0.0000000000000000000, 0.0000000000000000000, 0.0000000000000000000 ) ) ;
#206 = DIRECTION ( 'NONE',  ( -4.275831445896959482E-31, -1.000000000000000000, -1.224646799147353454E-16 ) ) ;
#207 = EDGE_CURVE ( 'NONE', #214, #214, #225, .T. ) ;
#208 = DIRECTION ( 'NONE',  ( -3.491481338843133355E-15, 1.224646799147353454E-16, -1.000000000000000000 ) ) ;
#209 = ORIENTED_EDGE ( 'NONE', *, *, #193, .F. ) ;
#210 = CLOSED_SHELL ( 'NONE', ( #288, #250, #145, #10 ) ) ;
#211 = APPLICATION_PROTOCOL_DEFINITION ( 'international standard', 'config_control_design', 1994, #105 ) ;
#212 = APPLICATION_CONTEXT ( 'configuration controlled 3d designs of mechanical parts and assemblies' ) ;
#213 = CARTESIAN_POINT ( 'NONE',  ( 3.491481338843133355E-14, 1.403499999999998638, 10.00000000000000000 ) ) ;
#214 = VERTEX_POINT ( 'NONE', #23 ) ;
#215 = AXIS2_PLACEMENT_3D ( 'NONE', #247, #292, #11 ) ;
#216 = CARTESIAN_POINT ( 'NONE',  ( 3.491481338843133355E-14, 1.403499999999998638, 10.00000000000000000 ) ) ;
#217 = EDGE_CURVE ( 'NONE', #237, #237, #163, .T. ) ;
#218 = FACE_OUTER_BOUND ( 'NONE', #146, .T. ) ;
#219 = EDGE_LOOP ( 'NONE', ( #55 ) ) ;
#220 = AXIS2_PLACEMENT_3D ( 'NONE', #173, #6, #70 ) ;
#221 = DIRECTION ( 'NONE',  ( 4.275831445896960358E-31, 1.000000000000000000, 1.224646799147353454E-16 ) ) ;
#222 = CARTESIAN_POINT ( 'NONE',  ( 0.0000000000000000000, 0.0000000000000000000, 0.0000000000000000000 ) ) ;
#223 = DATE_AND_TIME ( #172, #281 ) ;
#224 = EDGE_LOOP ( 'NONE', ( #175 ) ) ;
#225 = CIRCLE ( 'NONE', #183, 1.259162432702594536 ) ;
#226 = CARTESIAN_POINT ( 'NONE',  ( 8.728703347107827472E-16, -3.061616997868381785E-17, 0.2499999999999998335 ) ) ;
#227 = ADVANCED_FACE ( 'NONE', ( #61, #202 ), #126, .T. ) ;
#228 = AXIS2_PLACEMENT_3D ( 'NONE', #181, #229, #274 ) ;
#229 = DIRECTION ( 'NONE',  ( -3.491481338843133355E-15, 1.224646799147353454E-16, -1.000000000000000000 ) ) ;
#230 = MANIFOLD_SOLID_BREP ( 'Corps-Déplacer/Copier1[1]', #154 ) ;
#231 = ADVANCED_BREP_SHAPE_REPRESENTATION ( '200138', ( #230, #20, #234 ), #293 ) ;
#232 = FACE_OUTER_BOUND ( 'NONE', #287, .T. ) ;
#233 = ORIENTED_EDGE ( 'NONE', *, *, #116, .F. ) ;
#234 = AXIS2_PLACEMENT_3D ( 'NONE', #2, #114, #89 ) ;
#235 = CARTESIAN_POINT ( 'NONE',  ( 9.383831593535530478E-14, 1.499999999999992673, 26.87636187293719559 ) ) ;
#236 = ADVANCED_FACE ( 'NONE', ( #39 ), #131, .F. ) ;
#237 = VERTEX_POINT ( 'NONE', #190 ) ;
#238 = DATE_AND_TIME ( #44, #87 ) ;
#239 = AXIS2_PLACEMENT_3D ( 'NONE', #196, #71, #73 ) ;
#240 = ADVANCED_FACE ( 'NONE', ( #127, #153 ), #34, .T. ) ;
#241 = EDGE_LOOP ( 'NONE', ( #246 ) ) ;
#242 = CARTESIAN_POINT ( 'NONE',  ( 3.491481338843133355E-14, 1.052456427482957172E-32, 10.00000000000000000 ) ) ;
#243 = COORDINATED_UNIVERSAL_TIME_OFFSET ( 1, 0, .AHEAD. ) ;
#244 = ORIENTED_EDGE ( 'NONE', *, *, #113, .F. ) ;
#245 = CIRCLE ( 'NONE', #38, 1.403499999999999970 ) ;
#246 = ORIENTED_EDGE ( 'NONE', *, *, #203, .F. ) ;
#247 = CARTESIAN_POINT ( 'NONE',  ( 3.614546398369628854E-14, -1.267812211363458297E-15, 10.35247233934027378 ) ) ;
#248 = DIRECTION ( 'NONE',  ( 4.275831445896959482E-31, 1.000000000000000000, 1.224646799147353454E-16 ) ) ;
#249 = ORGANIZATION ( 'UNSPECIFIED', 'UNSPECIFIED', '' ) ;
#250 = ADVANCED_FACE ( 'NONE', ( #155, #296 ), #76, .T. ) ;
#251 = CIRCLE ( 'NONE', #228, 1.200000000000001510 ) ;
#252 = FACE_OUTER_BOUND ( 'NONE', #224, .T. ) ;
#253 = CYLINDRICAL_SURFACE ( 'NONE', #147, 1.499999999999998668 ) ;
#254 = CARTESIAN_POINT ( 'NONE',  ( 2.129803616694311221E-13, -7.470345474798856659E-15, 61.00000000000000000 ) ) ;
#255 = DIRECTION ( 'NONE',  ( 4.275831445896959482E-31, 1.000000000000000000, 1.224646799147353454E-16 ) ) ;
#256 = EDGE_CURVE ( 'NONE', #187, #187, #5, .T. ) ;
#257 = EDGE_LOOP ( 'NONE', ( #192 ) ) ;
#258 = APPROVAL_ROLE ( '' ) ;
#259 = APPLICATION_PROTOCOL_DEFINITION ( 'international standard', 'config_control_design', 1994, #212 ) ;
#260 = CALENDAR_DATE ( 2021, 30, 11 ) ;
#261 = ADVANCED_FACE ( 'NONE', ( #79, #252 ), #253, .T. ) ;
#262 = DESIGN_CONTEXT ( 'detailed design', #105, 'design' ) ;
#263 = CARTESIAN_POINT ( 'NONE',  ( 0.0000000000000000000, 0.0000000000000000000, 0.0000000000000000000 ) ) ;
#264 = FACE_OUTER_BOUND ( 'NONE', #77, .T. ) ;
#265 = FACE_OUTER_BOUND ( 'NONE', #241, .T. ) ;
#266 = APPROVAL_DATE_TIME ( #32, #169 ) ;
#267 = PLANE ( 'NONE',  #270 ) ;
#268 = EDGE_LOOP ( 'NONE', ( #4 ) ) ;
#269 = PLANE ( 'NONE',  #121 ) ;
#270 = AXIS2_PLACEMENT_3D ( 'NONE', #242, #151, #27 ) ;
#271 = LOCAL_TIME ( 10, 57, 5.000000000000000000, #243 ) ;
#272 = DIRECTION ( 'NONE',  ( 0.0000000000000000000, 1.000000000000000000, 0.0000000000000000000 ) ) ;
#273 = CARTESIAN_POINT ( 'NONE',  ( 3.491481338843133355E-14, -1.224646799147353454E-15, 10.00000000000000000 ) ) ;
#274 = DIRECTION ( 'NONE',  ( 0.0000000000000000000, 1.000000000000000000, 0.0000000000000000000 ) ) ;
#275 = AXIS2_PLACEMENT_3D ( 'NONE', #86, #182, #276 ) ;
#276 = DIRECTION ( 'NONE',  ( 0.0000000000000000000, -1.000000000000000000, 0.0000000000000000000 ) ) ;
#277 = EDGE_LOOP ( 'NONE', ( #95 ) ) ;
#278 = APPROVAL_STATUS ( 'not_yet_approved' ) ;
#279 = CC_DESIGN_PERSON_AND_ORGANIZATION_ASSIGNMENT ( #141, #24, ( #179 ) ) ;
#280 = CARTESIAN_POINT ( 'NONE',  ( 3.614546398369628854E-14, 1.199999999999996847, 10.35247233934027378 ) ) ;
#281 = LOCAL_TIME ( 10, 57, 5.000000000000000000, #29 ) ;
#282 = VERTEX_POINT ( 'NONE', #213 ) ;
#283 = UNCERTAINTY_MEASURE_WITH_UNIT (LENGTH_MEASURE( 1.000000000000000082E-05 ), #67, 'distance_accuracy_value', 'NONE');
#284 = AXIS2_PLACEMENT_3D ( 'NONE', #62, #84, #201 ) ;
#285 = CARTESIAN_POINT ( 'NONE',  ( 8.849961221477469775E-14, -3.104148534859897544E-15, 25.34729635533384595 ) ) ;
#286 = DATE_TIME_ROLE ( 'classification_date' ) ;
#287 = EDGE_LOOP ( 'NONE', ( #40 ) ) ;
#288 = ADVANCED_FACE ( 'NONE', ( #14 ), #269, .F. ) ;
#289 = SHAPE_DEFINITION_REPRESENTATION ( #45, #231 ) ;
#290 = ORIENTED_EDGE ( 'NONE', *, *, #294, .F. ) ;
#291 = PERSON_AND_ORGANIZATION_ROLE ( 'classification_officer' ) ;
#292 = DIRECTION ( 'NONE',  ( -3.491481338843133355E-15, 1.224646799147353454E-16, -1.000000000000000000 ) ) ;
#293 =( GEOMETRIC_REPRESENTATION_CONTEXT ( 3 ) GLOBAL_UNCERTAINTY_ASSIGNED_CONTEXT ( ( #283 ) ) GLOBAL_UNIT_ASSIGNED_CONTEXT ( ( #67, #112, #25 ) ) REPRESENTATION_CONTEXT ( 'NONE', 'WORKASPACE' ) );
#294 = EDGE_CURVE ( 'NONE', #282, #282, #245, .T. ) ;
#295 = ORIENTED_EDGE ( 'NONE', *, *, #203, .T. ) ;
#296 = FACE_OUTER_BOUND ( 'NONE', #257, .T. ) ;
#297 = DIRECTION ( 'NONE',  ( 4.275831445896960358E-31, 1.000000000000000000, 1.224646799147353454E-16 ) ) ;
#298 = CIRCLE ( 'NONE', #284, 1.403499999999999970 ) ;
#299 = DIRECTION ( 'NONE',  ( 3.491481338843133355E-15, -1.224646799147353454E-16, 1.000000000000000000 ) ) ;
#300 = DIRECTION ( 'NONE',  ( 3.491481338843133355E-15, -1.224646799147353454E-16, 1.000000000000000000 ) ) ;
#301 = DIRECTION ( 'NONE',  ( 4.275831445896959482E-31, 1.000000000000000000, 1.224646799147353454E-16 ) ) ;
#302 = AXIS2_PLACEMENT_3D ( 'NONE', #103, #300, #206 ) ;
#303 = EDGE_LOOP ( 'NONE', ( #100 ) ) ;
ENDSEC;
END-ISO-10303-21;
