ISO-10303-21;
HEADER;
FILE_DESCRIPTION (( 'STEP AP203' ),
    '1' );
FILE_NAME ('200137.step',
    '2021-11-30T08:32:36',
    ( '' ),
    ( '' ),
    'SwSTEP 2.0',
    'SolidWorks 2019',
    '' );
FILE_SCHEMA (( 'CONFIG_CONTROL_DESIGN' ));
ENDSEC;

DATA;
#1 = ADVANCED_BREP_SHAPE_REPRESENTATION ( '200137', ( #175, #71, #63 ), #98 ) ;
#2 = CARTESIAN_POINT ( 'NONE',  ( -3.438463017358751705E-31, 1.206050475294874390E-32, -9.848149492037816294E-17 ) ) ;
#3 = EDGE_LOOP ( 'NONE', ( #36 ) ) ;
#4 = CC_DESIGN_PERSON_AND_ORGANIZATION_ASSIGNMENT ( #154, #171, ( #276 ) ) ;
#5 = DIRECTION ( 'NONE',  ( -3.491481338843133355E-15, 1.224646799147353207E-16, -1.000000000000000000 ) ) ;
#6 = CALENDAR_DATE ( 2021, 30, 11 ) ;
#7 = DIRECTION ( 'NONE',  ( -3.491481338843133355E-15, 1.224646799147353207E-16, -1.000000000000000000 ) ) ;
#8 = VERTEX_POINT ( 'NONE', #32 ) ;
#9 = PRODUCT_DEFINITION_SHAPE ( 'NONE', 'NONE',  #190 ) ;
#10 = AXIS2_PLACEMENT_3D ( 'NONE', #227, #40, #17 ) ;
#11 = APPROVAL_DATE_TIME ( #122, #134 ) ;
#12 = CARTESIAN_POINT ( 'NONE',  ( 2.855775899875449572E-14, 0.8449999999999998623, 8.179267258583378108 ) ) ;
#13 = DATE_AND_TIME ( #262, #236 ) ;
#14 = EDGE_CURVE ( 'NONE', #156, #156, #108, .T. ) ;
#15 = LOCAL_TIME ( 9, 32, 36.00000000000000000, #33 ) ;
#16 = EDGE_LOOP ( 'NONE', ( #65 ) ) ;
#17 = DIRECTION ( 'NONE',  ( 4.061001464179731278E-31, 1.000000000000000000, 1.143070292551929778E-16 ) ) ;
#18 = DIRECTION ( 'NONE',  ( -3.491481338843133355E-15, 1.224646799147353207E-16, -1.000000000000000000 ) ) ;
#19 = CIRCLE ( 'NONE', #89, 1.200000000000001732 ) ;
#20 = CARTESIAN_POINT ( 'NONE',  ( 1.735266225405037467E-13, -6.086494591762345225E-15, 49.70000000000000284 ) ) ;
#21 = DIRECTION ( 'NONE',  ( 0.0000000000000000000, 1.000000000000000000, 0.0000000000000000000 ) ) ;
#22 = ORIENTED_EDGE ( 'NONE', *, *, #24, .T. ) ;
#23 = DIRECTION ( 'NONE',  ( 0.0000000000000000000, -1.000000000000000000, 0.0000000000000000000 ) ) ;
#24 = EDGE_CURVE ( 'NONE', #247, #247, #296, .T. ) ;
#25 = CARTESIAN_POINT ( 'NONE',  ( 2.793185071074506684E-14, 7.112610769273846760E-33, 8.000000000000000000 ) ) ;
#26 = DIRECTION ( 'NONE',  ( 0.0000000000000000000, 0.0000000000000000000, 1.000000000000000000 ) ) ;
#27 = PERSON_AND_ORGANIZATION_ROLE ( 'design_supplier' ) ;
#28 = CARTESIAN_POINT ( 'NONE',  ( 5.935518276033326704E-14, -2.081899558550500280E-15, 17.00000000000000000 ) ) ;
#29 = COORDINATED_UNIVERSAL_TIME_OFFSET ( 1, 0, .AHEAD. ) ;
#30 = FACE_BOUND ( 'NONE', #64, .T. ) ;
#31 = DATE_TIME_ROLE ( 'classification_date' ) ;
#32 = CARTESIAN_POINT ( 'NONE',  ( 2.793185071074506684E-14, 0.9484999999999991216, 8.000000000000000000 ) ) ;
#33 = COORDINATED_UNIVERSAL_TIME_OFFSET ( 1, 0, .AHEAD. ) ;
#34 = ORIENTED_EDGE ( 'NONE', *, *, #126, .T. ) ;
#35 = ORIENTED_EDGE ( 'NONE', *, *, #197, .F. ) ;
#36 = ORIENTED_EDGE ( 'NONE', *, *, #102, .F. ) ;
#37 = AXIS2_PLACEMENT_3D ( 'NONE', #277, #208, #161 ) ;
#38 = FACE_OUTER_BOUND ( 'NONE', #249, .T. ) ;
#39 = DIRECTION ( 'NONE',  ( -3.491481338843133355E-15, 1.224646799147353207E-16, -1.000000000000000000 ) ) ;
#40 = DIRECTION ( 'NONE',  ( -3.491481338843133355E-15, 1.224646799147353207E-16, -1.000000000000000000 ) ) ;
#41 = CONICAL_SURFACE ( 'NONE', #218, 0.9485000000000001208, 0.5235987755982998149 ) ;
#42 = CARTESIAN_POINT ( 'NONE',  ( 6.056776150402963091E-14, -2.124431095542013992E-15, 17.34729635533384595 ) ) ;
#43 = DIRECTION ( 'NONE',  ( 3.491481338843133355E-15, -1.224646799147353207E-16, 1.000000000000000000 ) ) ;
#44 = APPROVAL_STATUS ( 'not_yet_approved' ) ;
#45 = CC_DESIGN_PERSON_AND_ORGANIZATION_ASSIGNMENT ( #54, #79, ( #284 ) ) ;
#46 = AXIS2_PLACEMENT_3D ( 'NONE', #180, #181, #257 ) ;
#47 = DIRECTION ( 'NONE',  ( -3.491481338843133355E-15, 1.224646799147353207E-16, -1.000000000000000000 ) ) ;
#48 = CALENDAR_DATE ( 2021, 30, 11 ) ;
#49 = FACE_OUTER_BOUND ( 'NONE', #204, .T. ) ;
#50 = VERTEX_POINT ( 'NONE', #99 ) ;
#51 = APPROVAL_DATE_TIME ( #13, #299 ) ;
#52 = CARTESIAN_POINT ( 'NONE',  ( 1.745740669421566678E-13, 1.199999999999995515, 50.00000000000000000 ) ) ;
#53 = CARTESIAN_POINT ( 'NONE',  ( 2.793185071074506684E-14, 0.9484999999999991216, 8.000000000000000000 ) ) ;
#54 = PERSON_AND_ORGANIZATION ( #76, #297 ) ;
#55 = DIRECTION ( 'NONE',  ( 0.0000000000000000000, 1.000000000000000000, 0.0000000000000000000 ) ) ;
#56 = EDGE_LOOP ( 'NONE', ( #224 ) ) ;
#57 = ADVANCED_FACE ( 'NONE', ( #70 ), #285, .F. ) ;
#58 = CONICAL_SURFACE ( 'NONE', #229, 1.499999999999996669, 0.1745329251994265085 ) ;
#59 = ORIENTED_EDGE ( 'NONE', *, *, #126, .F. ) ;
#60 = CONICAL_SURFACE ( 'NONE', #177, 0.9484999999999991216, 0.5235987755982923764 ) ;
#61 = EDGE_LOOP ( 'NONE', ( #35 ) ) ;
#62 = EDGE_CURVE ( 'NONE', #78, #78, #19, .T. ) ;
#63 = AXIS2_PLACEMENT_3D ( 'NONE', #237, #26, #118 ) ;
#64 = EDGE_LOOP ( 'NONE', ( #199 ) ) ;
#65 = ORIENTED_EDGE ( 'NONE', *, *, #14, .T. ) ;
#66 = ADVANCED_FACE ( 'NONE', ( #38 ), #258, .F. ) ;
#67 = ORIENTED_EDGE ( 'NONE', *, *, #111, .T. ) ;
#68 = AXIS2_PLACEMENT_3D ( 'NONE', #115, #151, #55 ) ;
#69 = EDGE_LOOP ( 'NONE', ( #92 ) ) ;
#70 = FACE_OUTER_BOUND ( 'NONE', #250, .T. ) ;
#71 = MANIFOLD_SOLID_BREP ( 'Corps-Déplacer/Copier1[2]', #244 ) ;
#72 = DIRECTION ( 'NONE',  ( -4.275831445896958607E-31, -1.000000000000000000, -1.224646799147353207E-16 ) ) ;
#73 = VERTEX_POINT ( 'NONE', #246 ) ;
#74 = PERSON_AND_ORGANIZATION ( #76, #297 ) ;
#75 = CLOSED_SHELL ( 'NONE', ( #66, #231, #200, #85, #155, #107, #273, #57 ) ) ;
#76 = PERSON ( 'UNSPECIFIED', 'UNSPECIFIED', 'UNSPECIFIED', ('UNSPECIFIED'), ('UNSPECIFIED'), ('UNSPECIFIED') ) ;
#77 = CARTESIAN_POINT ( 'NONE',  ( -1.719231508679375853E-31, 6.030252376474371948E-33, -4.924074746018908147E-17 ) ) ;
#78 = VERTEX_POINT ( 'NONE', #52 ) ;
#79 = PERSON_AND_ORGANIZATION_ROLE ( 'classification_officer' ) ;
#80 =( LENGTH_UNIT ( ) NAMED_UNIT ( * ) SI_UNIT ( .MILLI., .METRE. ) );
#81 = DIRECTION ( 'NONE',  ( 0.0000000000000000000, 1.000000000000000000, 0.0000000000000000000 ) ) ;
#82 = CALENDAR_DATE ( 2021, 30, 11 ) ;
#83 = CARTESIAN_POINT ( 'NONE',  ( 1.735266225405037467E-13, 1.499999999999995559, 49.70000000000000284 ) ) ;
#84 = EDGE_LOOP ( 'NONE', ( #22 ) ) ;
#85 = ADVANCED_FACE ( 'NONE', ( #233, #207 ), #194, .F. ) ;
#86 = CIRCLE ( 'NONE', #68, 0.9485000000000001208 ) ;
#87 = ORIENTED_EDGE ( 'NONE', *, *, #265, .F. ) ;
#88 = CARTESIAN_POINT ( 'NONE',  ( 2.855775899875449572E-14, -1.001671346759487905E-15, 8.179267258583378108 ) ) ;
#89 = AXIS2_PLACEMENT_3D ( 'NONE', #209, #18, #112 ) ;
#90 = DIRECTION ( 'NONE',  ( -3.491481338843133355E-15, 1.224646799147353207E-16, -1.000000000000000000 ) ) ;
#91 = DIRECTION ( 'NONE',  ( 0.0000000000000000000, 1.000000000000000000, 0.0000000000000000000 ) ) ;
#92 = ORIENTED_EDGE ( 'NONE', *, *, #102, .T. ) ;
#93 = APPLICATION_CONTEXT ( 'configuration controlled 3d designs of mechanical parts and assemblies' ) ;
#94 = CC_DESIGN_PERSON_AND_ORGANIZATION_ASSIGNMENT ( #96, #27, ( #276 ) ) ;
#95 = DIRECTION ( 'NONE',  ( 0.0000000000000000000, 1.000000000000000000, 0.0000000000000000000 ) ) ;
#96 = PERSON_AND_ORGANIZATION ( #76, #297 ) ;
#97 = APPROVAL_ROLE ( '' ) ;
#98 =( GEOMETRIC_REPRESENTATION_CONTEXT ( 3 ) GLOBAL_UNCERTAINTY_ASSIGNED_CONTEXT ( ( #129 ) ) GLOBAL_UNIT_ASSIGNED_CONTEXT ( ( #80, #174, #293 ) ) REPRESENTATION_CONTEXT ( 'NONE', 'WORKASPACE' ) );
#99 = CARTESIAN_POINT ( 'NONE',  ( 8.728703347107833388E-16, 0.9484999999999991216, 0.2500000000000000000 ) ) ;
#100 = CYLINDRICAL_SURFACE ( 'NONE', #196, 0.9484999999999996767 ) ;
#101 = PERSON_AND_ORGANIZATION ( #76, #297 ) ;
#102 = EDGE_CURVE ( 'NONE', #217, #217, #275, .T. ) ;
#103 = EDGE_LOOP ( 'NONE', ( #87 ) ) ;
#104 = AXIS2_PLACEMENT_3D ( 'NONE', #20, #163, #91 ) ;
#105 = EDGE_LOOP ( 'NONE', ( #67 ) ) ;
#106 = CARTESIAN_POINT ( 'NONE',  ( 7.293588222199358660E-14, -2.558246372748716375E-15, 20.88966691890157534 ) ) ;
#107 = ADVANCED_FACE ( 'NONE', ( #186, #303 ), #133, .T. ) ;
#108 = CIRCLE ( 'NONE', #104, 1.500000000000001554 ) ;
#109 = DIRECTION ( 'NONE',  ( -3.491481338843133355E-15, 1.224646799147353207E-16, -1.000000000000000000 ) ) ;
#110 = PLANE ( 'NONE',  #157 ) ;
#111 = EDGE_CURVE ( 'NONE', #221, #221, #223, .T. ) ;
#112 = DIRECTION ( 'NONE',  ( 0.0000000000000000000, 1.000000000000000000, 0.0000000000000000000 ) ) ;
#113 = AXIS2_PLACEMENT_3D ( 'NONE', #135, #43, #141 ) ;
#114 = CARTESIAN_POINT ( 'NONE',  ( 0.0000000000000000000, 0.0000000000000000000, 0.0000000000000000000 ) ) ;
#115 = CARTESIAN_POINT ( 'NONE',  ( 2.793185071074506684E-14, -9.797174393178825657E-16, 8.000000000000000000 ) ) ;
#116 = COORDINATED_UNIVERSAL_TIME_OFFSET ( 1, 0, .AHEAD. ) ;
#117 = DIRECTION ( 'NONE',  ( 0.0000000000000000000, 1.000000000000000000, 0.0000000000000000000 ) ) ;
#118 = DIRECTION ( 'NONE',  ( 1.000000000000000000, 0.0000000000000000000, 0.0000000000000000000 ) ) ;
#119 = DATE_AND_TIME ( #238, #168 ) ;
#120 = FACE_OUTER_BOUND ( 'NONE', #3, .T. ) ;
#121 = EDGE_CURVE ( 'NONE', #50, #50, #127, .T. ) ;
#122 = DATE_AND_TIME ( #82, #252 ) ;
#123 = CARTESIAN_POINT ( 'NONE',  ( 5.935518276033326704E-14, 0.8449999999999980860, 17.00000000000000000 ) ) ;
#124 = PERSON_AND_ORGANIZATION_ROLE ( 'design_owner' ) ;
#125 = PERSON_AND_ORGANIZATION_ROLE ( 'creator' ) ;
#126 = EDGE_CURVE ( 'NONE', #240, #240, #302, .T. ) ;
#127 = CIRCLE ( 'NONE', #10, 0.9484999999999991216 ) ;
#128 = ORIENTED_EDGE ( 'NONE', *, *, #14, .F. ) ;
#129 = UNCERTAINTY_MEASURE_WITH_UNIT (LENGTH_MEASURE( 1.000000000000000082E-05 ), #80, 'distance_accuracy_value', 'NONE');
#130 = EDGE_LOOP ( 'NONE', ( #274 ) ) ;
#131 = ORIENTED_EDGE ( 'NONE', *, *, #136, .F. ) ;
#132 = APPROVAL ( #195, 'UNSPECIFIED' ) ;
#133 = CYLINDRICAL_SURFACE ( 'NONE', #46, 1.499999999999999112 ) ;
#134 = APPROVAL ( #187, 'UNSPECIFIED' ) ;
#135 = CARTESIAN_POINT ( 'NONE',  ( 2.793185071074506684E-14, 7.112610769273846760E-33, 8.000000000000000000 ) ) ;
#136 = EDGE_CURVE ( 'NONE', #73, #73, #290, .T. ) ;
#137 = FACE_OUTER_BOUND ( 'NONE', #253, .T. ) ;
#138 = AXIS2_PLACEMENT_3D ( 'NONE', #114, #5, #260 ) ;
#139 = CC_DESIGN_APPROVAL ( #134, ( #284 ) ) ;
#140 = ORIENTED_EDGE ( 'NONE', *, *, #62, .T. ) ;
#141 = DIRECTION ( 'NONE',  ( -4.275831445896958607E-31, -1.000000000000000000, -1.224646799147353207E-16 ) ) ;
#142 = ADVANCED_FACE ( 'NONE', ( #137 ), #110, .T. ) ;
#143 = FACE_BOUND ( 'NONE', #202, .T. ) ;
#144 = DATE_AND_TIME ( #6, #278 ) ;
#145 = DIRECTION ( 'NONE',  ( 0.0000000000000000000, 1.000000000000000000, 0.0000000000000000000 ) ) ;
#146 = DIRECTION ( 'NONE',  ( -3.491481338843133355E-15, 1.224646799147353207E-16, -1.000000000000000000 ) ) ;
#147 = DATE_TIME_ROLE ( 'creation_date' ) ;
#148 = DIRECTION ( 'NONE',  ( -4.275831445896958607E-31, -1.000000000000000000, -1.224646799147353207E-16 ) ) ;
#149 = CARTESIAN_POINT ( 'NONE',  ( 6.056776150402963091E-14, 0.8753844939755773824, 17.34729635533384595 ) ) ;
#150 = APPLICATION_PROTOCOL_DEFINITION ( 'international standard', 'config_control_design', 1994, #255 ) ;
#151 = DIRECTION ( 'NONE',  ( -3.491481338843133355E-15, 1.224646799147353207E-16, -1.000000000000000000 ) ) ;
#152 = CC_DESIGN_APPROVAL ( #299, ( #190 ) ) ;
#153 = CARTESIAN_POINT ( 'NONE',  ( 0.0000000000000000000, 0.8041624327025949093, 0.0000000000000000000 ) ) ;
#154 = PERSON_AND_ORGANIZATION ( #76, #297 ) ;
#155 = ADVANCED_FACE ( 'NONE', ( #143, #49 ), #58, .T. ) ;
#156 = VERTEX_POINT ( 'NONE', #83 ) ;
#157 = AXIS2_PLACEMENT_3D ( 'NONE', #25, #234, #148 ) ;
#158 = CC_DESIGN_SECURITY_CLASSIFICATION ( #284, ( #276 ) ) ;
#159 = CONICAL_SURFACE ( 'NONE', #203, 1.200000000000001732, 0.7853981633974453924 ) ;
#160 = DIRECTION ( 'NONE',  ( 4.275831445896957731E-31, 1.000000000000000000, 1.224646799147353207E-16 ) ) ;
#161 = DIRECTION ( 'NONE',  ( 4.275831445896958607E-31, 1.000000000000000000, 1.224646799147353207E-16 ) ) ;
#162 = AXIS2_PLACEMENT_3D ( 'NONE', #184, #254, #300 ) ;
#163 = DIRECTION ( 'NONE',  ( -3.491481338843133355E-15, 1.224646799147353207E-16, -1.000000000000000000 ) ) ;
#164 = FACE_OUTER_BOUND ( 'NONE', #105, .T. ) ;
#165 = APPLICATION_PROTOCOL_DEFINITION ( 'international standard', 'config_control_design', 1994, #93 ) ;
#166 = AXIS2_PLACEMENT_3D ( 'NONE', #106, #205, #280 ) ;
#167 = COORDINATED_UNIVERSAL_TIME_OFFSET ( 1, 0, .AHEAD. ) ;
#168 = LOCAL_TIME ( 9, 32, 36.00000000000000000, #116 ) ;
#169 = FACE_BOUND ( 'NONE', #69, .T. ) ;
#170 = DIRECTION ( 'NONE',  ( -4.061001464179731278E-31, -1.000000000000000000, -1.143070292551929778E-16 ) ) ;
#171 = PERSON_AND_ORGANIZATION_ROLE ( 'creator' ) ;
#172 = VERTEX_POINT ( 'NONE', #123 ) ;
#173 = PERSON_AND_ORGANIZATION ( #76, #297 ) ;
#174 =( NAMED_UNIT ( * ) PLANE_ANGLE_UNIT ( ) SI_UNIT ( $, .RADIAN. ) );
#175 = MANIFOLD_SOLID_BREP ( 'Corps-Déplacer/Copier1[1]', #75 ) ;
#176 = ORIENTED_EDGE ( 'NONE', *, *, #136, .T. ) ;
#177 = AXIS2_PLACEMENT_3D ( 'NONE', #193, #291, #170 ) ;
#178 = ORIENTED_EDGE ( 'NONE', *, *, #121, .T. ) ;
#179 = AXIS2_PLACEMENT_3D ( 'NONE', #88, #109, #95 ) ;
#180 = CARTESIAN_POINT ( 'NONE',  ( 0.0000000000000000000, 0.0000000000000000000, 0.0000000000000000000 ) ) ;
#181 = DIRECTION ( 'NONE',  ( -3.491481338843133355E-15, 1.224646799147353207E-16, -1.000000000000000000 ) ) ;
#182 = CARTESIAN_POINT ( 'NONE',  ( 2.793185071074506684E-14, -9.797174393178825657E-16, 8.000000000000000000 ) ) ;
#183 = CC_DESIGN_DATE_AND_TIME_ASSIGNMENT ( #245, #147, ( #190 ) ) ;
#184 = CARTESIAN_POINT ( 'NONE',  ( 1.745740669421566678E-13, 8.998558695971067645E-33, 50.00000000000000000 ) ) ;
#185 = AXIS2_PLACEMENT_3D ( 'NONE', #28, #7, #145 ) ;
#186 = FACE_OUTER_BOUND ( 'NONE', #226, .T. ) ;
#187 = APPROVAL_STATUS ( 'not_yet_approved' ) ;
#188 = FACE_OUTER_BOUND ( 'NONE', #130, .T. ) ;
#189 = CARTESIAN_POINT ( 'NONE',  ( 0.0000000000000000000, 0.0000000000000000000, 0.0000000000000000000 ) ) ;
#190 = PRODUCT_DEFINITION ( 'UNKNOWN', '', #276, #201 ) ;
#191 = APPROVAL_DATE_TIME ( #144, #132 ) ;
#192 = DIRECTION ( 'NONE',  ( 3.491481338843133355E-15, -1.224646799147353207E-16, 1.000000000000000000 ) ) ;
#193 = CARTESIAN_POINT ( 'NONE',  ( 8.728703347107829444E-16, -3.061616997868381785E-17, 0.2499999999999998890 ) ) ;
#194 = TOROIDAL_SURFACE ( 'NONE', #37, 2.844999999999999751, 2.000000000000000444 ) ;
#195 = APPROVAL_STATUS ( 'not_yet_approved' ) ;
#196 = AXIS2_PLACEMENT_3D ( 'NONE', #189, #266, #288 ) ;
#197 = EDGE_CURVE ( 'NONE', #172, #172, #256, .T. ) ;
#198 = FACE_BOUND ( 'NONE', #230, .T. ) ;
#199 = ORIENTED_EDGE ( 'NONE', *, *, #111, .F. ) ;
#200 = ADVANCED_FACE ( 'NONE', ( #188, #120 ), #216, .T. ) ;
#201 = DESIGN_CONTEXT ( 'detailed design', #255, 'design' ) ;
#202 = EDGE_LOOP ( 'NONE', ( #59 ) ) ;
#203 = AXIS2_PLACEMENT_3D ( 'NONE', #264, #146, #81 ) ;
#204 = EDGE_LOOP ( 'NONE', ( #176 ) ) ;
#205 = DIRECTION ( 'NONE',  ( -3.491481338843133355E-15, 1.224646799147353207E-16, -1.000000000000000000 ) ) ;
#206 = APPROVAL_PERSON_ORGANIZATION ( #173, #132, #222 ) ;
#207 = FACE_OUTER_BOUND ( 'NONE', #268, .T. ) ;
#208 = DIRECTION ( 'NONE',  ( -3.491481338843133355E-15, 1.224646799147353207E-16, -1.000000000000000000 ) ) ;
#209 = CARTESIAN_POINT ( 'NONE',  ( 1.745740669421566678E-13, -6.123233995736766085E-15, 50.00000000000000000 ) ) ;
#210 = ADVANCED_FACE ( 'NONE', ( #164 ), #239, .F. ) ;
#211 = CARTESIAN_POINT ( 'NONE',  ( 7.293588222199358660E-14, -2.558246372748716375E-15, 20.88966691890157534 ) ) ;
#212 = FACE_OUTER_BOUND ( 'NONE', #84, .T. ) ;
#213 = SECURITY_CLASSIFICATION_LEVEL ( 'unclassified' ) ;
#214 = FACE_OUTER_BOUND ( 'NONE', #56, .T. ) ;
#215 = MECHANICAL_CONTEXT ( 'NONE', #93, 'mechanical' ) ;
#216 = CYLINDRICAL_SURFACE ( 'NONE', #138, 0.8450000000000005285 ) ;
#217 = VERTEX_POINT ( 'NONE', #12 ) ;
#218 = AXIS2_PLACEMENT_3D ( 'NONE', #263, #47, #117 ) ;
#219 = APPROVAL_PERSON_ORGANIZATION ( #101, #134, #235 ) ;
#220 = PERSON_AND_ORGANIZATION ( #76, #297 ) ;
#221 = VERTEX_POINT ( 'NONE', #153 ) ;
#222 = APPROVAL_ROLE ( '' ) ;
#223 = CIRCLE ( 'NONE', #261, 0.8041624327025949093 ) ;
#224 = ORIENTED_EDGE ( 'NONE', *, *, #121, .F. ) ;
#225 = AXIS2_PLACEMENT_3D ( 'NONE', #182, #251, #21 ) ;
#226 = EDGE_LOOP ( 'NONE', ( #131 ) ) ;
#227 = CARTESIAN_POINT ( 'NONE',  ( 8.728703347107829444E-16, -3.061616997868381785E-17, 0.2499999999999998890 ) ) ;
#228 = DIRECTION ( 'NONE',  ( 0.0000000000000000000, 1.000000000000000000, 0.0000000000000000000 ) ) ;
#229 = AXIS2_PLACEMENT_3D ( 'NONE', #211, #192, #23 ) ;
#230 = EDGE_LOOP ( 'NONE', ( #140 ) ) ;
#231 = ADVANCED_FACE ( 'NONE', ( #169, #287 ), #41, .T. ) ;
#232 = ORIENTED_EDGE ( 'NONE', *, *, #24, .F. ) ;
#233 = FACE_OUTER_BOUND ( 'NONE', #61, .T. ) ;
#234 = DIRECTION ( 'NONE',  ( 3.491481338843133355E-15, -1.224646799147353207E-16, 1.000000000000000000 ) ) ;
#235 = APPROVAL_ROLE ( '' ) ;
#236 = LOCAL_TIME ( 9, 32, 36.00000000000000000, #167 ) ;
#237 = CARTESIAN_POINT ( 'NONE',  ( 0.0000000000000000000, 0.0000000000000000000, 0.0000000000000000000 ) ) ;
#238 = CALENDAR_DATE ( 2021, 30, 11 ) ;
#239 = PLANE ( 'NONE',  #270 ) ;
#240 = VERTEX_POINT ( 'NONE', #149 ) ;
#241 = PERSON_AND_ORGANIZATION ( #76, #297 ) ;
#242 = FACE_OUTER_BOUND ( 'NONE', #283, .T. ) ;
#243 = CC_DESIGN_PERSON_AND_ORGANIZATION_ASSIGNMENT ( #241, #125, ( #190 ) ) ;
#244 = CLOSED_SHELL ( 'NONE', ( #210, #294, #248, #142 ) ) ;
#245 = DATE_AND_TIME ( #48, #15 ) ;
#246 = CARTESIAN_POINT ( 'NONE',  ( 7.293588222199358660E-14, 1.499999999999994005, 20.88966691890157534 ) ) ;
#247 = VERTEX_POINT ( 'NONE', #53 ) ;
#248 = ADVANCED_FACE ( 'NONE', ( #214, #212 ), #100, .T. ) ;
#249 = EDGE_LOOP ( 'NONE', ( #281 ) ) ;
#250 = EDGE_LOOP ( 'NONE', ( #298 ) ) ;
#251 = DIRECTION ( 'NONE',  ( -3.491481338843133355E-15, 1.224646799147353207E-16, -1.000000000000000000 ) ) ;
#252 = LOCAL_TIME ( 9, 32, 36.00000000000000000, #29 ) ;
#253 = EDGE_LOOP ( 'NONE', ( #232 ) ) ;
#254 = DIRECTION ( 'NONE',  ( -3.491481338843133355E-15, 1.224646799147353207E-16, -1.000000000000000000 ) ) ;
#255 = APPLICATION_CONTEXT ( 'configuration controlled 3d designs of mechanical parts and assemblies' ) ;
#256 = CIRCLE ( 'NONE', #185, 0.8450000000000001954 ) ;
#257 = DIRECTION ( 'NONE',  ( 4.275831445896958607E-31, 1.000000000000000000, 1.224646799147353454E-16 ) ) ;
#258 = PLANE ( 'NONE',  #113 ) ;
#259 = CC_DESIGN_PERSON_AND_ORGANIZATION_ASSIGNMENT ( #220, #124, ( #267 ) ) ;
#260 = DIRECTION ( 'NONE',  ( 4.275831445896958607E-31, 1.000000000000000000, 1.224646799147353207E-16 ) ) ;
#261 = AXIS2_PLACEMENT_3D ( 'NONE', #2, #90, #160 ) ;
#262 = CALENDAR_DATE ( 2021, 30, 11 ) ;
#263 = CARTESIAN_POINT ( 'NONE',  ( 2.793185071074506684E-14, -9.797174393178825657E-16, 8.000000000000000000 ) ) ;
#264 = CARTESIAN_POINT ( 'NONE',  ( 1.745740669421566678E-13, -6.123233995736766085E-15, 50.00000000000000000 ) ) ;
#265 = EDGE_CURVE ( 'NONE', #8, #8, #86, .T. ) ;
#266 = DIRECTION ( 'NONE',  ( -3.491481338843133355E-15, 1.224646799147353207E-16, -1.000000000000000000 ) ) ;
#267 = PRODUCT ( '200137', '200137', '', ( #215 ) ) ;
#268 = EDGE_LOOP ( 'NONE', ( #34 ) ) ;
#269 = EDGE_LOOP ( 'NONE', ( #178 ) ) ;
#270 = AXIS2_PLACEMENT_3D ( 'NONE', #77, #289, #72 ) ;
#271 = APPROVAL_PERSON_ORGANIZATION ( #74, #299, #97 ) ;
#272 = CC_DESIGN_APPROVAL ( #132, ( #276 ) ) ;
#273 = ADVANCED_FACE ( 'NONE', ( #242, #198 ), #159, .T. ) ;
#274 = ORIENTED_EDGE ( 'NONE', *, *, #197, .T. ) ;
#275 = CIRCLE ( 'NONE', #179, 0.8450000000000008615 ) ;
#276 = PRODUCT_DEFINITION_FORMATION_WITH_SPECIFIED_SOURCE ( 'ANY', '', #267, .NOT_KNOWN. ) ;
#277 = CARTESIAN_POINT ( 'NONE',  ( 5.935518276033326704E-14, -2.168404344971008868E-15, 17.00000000000000000 ) ) ;
#278 = LOCAL_TIME ( 9, 32, 36.00000000000000000, #292 ) ;
#279 = PRODUCT_RELATED_PRODUCT_CATEGORY ( 'detail', '', ( #267 ) ) ;
#280 = DIRECTION ( 'NONE',  ( 0.0000000000000000000, 1.000000000000000000, 0.0000000000000000000 ) ) ;
#281 = ORIENTED_EDGE ( 'NONE', *, *, #265, .T. ) ;
#282 = AXIS2_PLACEMENT_3D ( 'NONE', #42, #39, #228 ) ;
#283 = EDGE_LOOP ( 'NONE', ( #128 ) ) ;
#284 = SECURITY_CLASSIFICATION ( '', '', #213 ) ;
#285 = PLANE ( 'NONE',  #162 ) ;
#286 = SHAPE_DEFINITION_REPRESENTATION ( #9, #1 ) ;
#287 = FACE_OUTER_BOUND ( 'NONE', #103, .T. ) ;
#288 = DIRECTION ( 'NONE',  ( 4.275831445896958607E-31, 1.000000000000000000, 1.224646799147352961E-16 ) ) ;
#289 = DIRECTION ( 'NONE',  ( 3.491481338843133355E-15, -1.224646799147353207E-16, 1.000000000000000000 ) ) ;
#290 = CIRCLE ( 'NONE', #166, 1.499999999999996669 ) ;
#291 = DIRECTION ( 'NONE',  ( 3.491481338843133355E-15, -1.224646799147353207E-16, 1.000000000000000000 ) ) ;
#292 = COORDINATED_UNIVERSAL_TIME_OFFSET ( 1, 0, .AHEAD. ) ;
#293 =( NAMED_UNIT ( * ) SI_UNIT ( $, .STERADIAN. ) SOLID_ANGLE_UNIT ( ) );
#294 = ADVANCED_FACE ( 'NONE', ( #30, #295 ), #60, .T. ) ;
#295 = FACE_OUTER_BOUND ( 'NONE', #269, .T. ) ;
#296 = CIRCLE ( 'NONE', #225, 0.9485000000000001208 ) ;
#297 = ORGANIZATION ( 'UNSPECIFIED', 'UNSPECIFIED', '' ) ;
#298 = ORIENTED_EDGE ( 'NONE', *, *, #62, .F. ) ;
#299 = APPROVAL ( #44, 'UNSPECIFIED' ) ;
#300 = DIRECTION ( 'NONE',  ( 4.275831445896958607E-31, 1.000000000000000000, 1.224646799147353207E-16 ) ) ;
#301 = CC_DESIGN_DATE_AND_TIME_ASSIGNMENT ( #119, #31, ( #284 ) ) ;
#302 = CIRCLE ( 'NONE', #282, 0.8753844939755794918 ) ;
#303 = FACE_OUTER_BOUND ( 'NONE', #16, .T. ) ;
ENDSEC;
END-ISO-10303-21;
