ISO-10303-21;
HEADER;
FILE_DESCRIPTION (( 'STEP AP203' ),
    '1' );
FILE_NAME ('200136.step',
    '2021-11-30T09:36:55',
    ( '' ),
    ( '' ),
    'SwSTEP 2.0',
    'SolidWorks 2019',
    '' );
FILE_SCHEMA (( 'CONFIG_CONTROL_DESIGN' ));
ENDSEC;

DATA;
#1 = PERSON_AND_ORGANIZATION_ROLE ( 'classification_officer' ) ;
#2 = DIRECTION ( 'NONE',  ( 0.0000000000000000000, 1.000000000000000000, 0.0000000000000000000 ) ) ;
#3 = FACE_BOUND ( 'NONE', #111, .T. ) ;
#4 = DESIGN_CONTEXT ( 'detailed design', #161, 'design' ) ;
#5 = DIRECTION ( 'NONE',  ( -3.491481338843133355E-15, 1.224646799147353454E-16, -1.000000000000000000 ) ) ;
#6 = PRODUCT_RELATED_PRODUCT_CATEGORY ( 'detail', '', ( #260 ) ) ;
#7 = APPROVAL_ROLE ( '' ) ;
#8 = DIRECTION ( 'NONE',  ( -3.491481338843133355E-15, 1.224646799147353454E-16, -1.000000000000000000 ) ) ;
#9 = ORIENTED_EDGE ( 'NONE', *, *, #283, .F. ) ;
#10 = LOCAL_TIME ( 10, 36, 55.00000000000000000, #181 ) ;
#11 = FACE_OUTER_BOUND ( 'NONE', #46, .T. ) ;
#12 = DIRECTION ( 'NONE',  ( -3.491481338843133355E-15, 1.224646799147353454E-16, -1.000000000000000000 ) ) ;
#13 = CC_DESIGN_PERSON_AND_ORGANIZATION_ASSIGNMENT ( #47, #1, ( #286 ) ) ;
#14 = PLANE ( 'NONE',  #212 ) ;
#15 = VERTEX_POINT ( 'NONE', #291 ) ;
#16 = CC_DESIGN_PERSON_AND_ORGANIZATION_ASSIGNMENT ( #154, #64, ( #260 ) ) ;
#17 = FACE_OUTER_BOUND ( 'NONE', #296, .T. ) ;
#18 = VERTEX_POINT ( 'NONE', #153 ) ;
#19 = AXIS2_PLACEMENT_3D ( 'NONE', #264, #29, #50 ) ;
#20 = ORIENTED_EDGE ( 'NONE', *, *, #201, .F. ) ;
#21 = APPROVAL_ROLE ( '' ) ;
#22 = SECURITY_CLASSIFICATION_LEVEL ( 'unclassified' ) ;
#23 = CARTESIAN_POINT ( 'NONE',  ( 8.728703347107833388E-16, 1.338499999999998691, 0.2500000000000000000 ) ) ;
#24 = EDGE_LOOP ( 'NONE', ( #252 ) ) ;
#25 = APPROVAL_PERSON_ORGANIZATION ( #98, #131, #7 ) ;
#26 = EDGE_CURVE ( 'NONE', #87, #87, #235, .T. ) ;
#27 = CARTESIAN_POINT ( 'NONE',  ( 2.129803616694311221E-13, -7.470345474798856659E-15, 61.00000000000000000 ) ) ;
#28 = UNCERTAINTY_MEASURE_WITH_UNIT (LENGTH_MEASURE( 1.000000000000000082E-05 ), #275, 'distance_accuracy_value', 'NONE');
#29 = DIRECTION ( 'NONE',  ( -3.491481338843133355E-15, 1.224646799147353454E-16, -1.000000000000000000 ) ) ;
#30 = CALENDAR_DATE ( 2021, 30, 11 ) ;
#31 = CONICAL_SURFACE ( 'NONE', #82, 1.338499999999998691, 0.5235987755982924874 ) ;
#32 = DIRECTION ( 'NONE',  ( 3.491481338843133355E-15, -1.224646799147353454E-16, 1.000000000000000000 ) ) ;
#33 = DIRECTION ( 'NONE',  ( -3.491481338843133355E-15, 1.224646799147353454E-16, -1.000000000000000000 ) ) ;
#34 = FACE_OUTER_BOUND ( 'NONE', #67, .T. ) ;
#35 = PLANE ( 'NONE',  #62 ) ;
#36 = CARTESIAN_POINT ( 'NONE',  ( 3.491481338843133355E-14, 1.338499999999998691, 10.00000000000000000 ) ) ;
#37 = DIRECTION ( 'NONE',  ( 0.0000000000000000000, 1.000000000000000000, 0.0000000000000000000 ) ) ;
#38 = EDGE_CURVE ( 'NONE', #194, #194, #144, .T. ) ;
#39 = AXIS2_PLACEMENT_3D ( 'NONE', #208, #80, #231 ) ;
#40 = PRODUCT_DEFINITION_FORMATION_WITH_SPECIFIED_SOURCE ( 'ANY', '', #260, .NOT_KNOWN. ) ;
#41 = DIRECTION ( 'NONE',  ( 4.275831445896960358E-31, 1.000000000000000000, 1.224646799147353454E-16 ) ) ;
#42 = DIRECTION ( 'NONE',  ( 0.0000000000000000000, 0.0000000000000000000, 1.000000000000000000 ) ) ;
#43 = ORIENTED_EDGE ( 'NONE', *, *, #26, .T. ) ;
#44 = CIRCLE ( 'NONE', #116, 1.124999999999998224 ) ;
#45 = PERSON_AND_ORGANIZATION ( #176, #249 ) ;
#46 = EDGE_LOOP ( 'NONE', ( #100 ) ) ;
#47 = PERSON_AND_ORGANIZATION ( #176, #249 ) ;
#48 = EDGE_CURVE ( 'NONE', #146, #146, #180, .T. ) ;
#49 = EDGE_LOOP ( 'NONE', ( #74 ) ) ;
#50 = DIRECTION ( 'NONE',  ( 0.0000000000000000000, 1.000000000000000000, 0.0000000000000000000 ) ) ;
#51 = CARTESIAN_POINT ( 'NONE',  ( 8.849961221477469775E-14, -3.104148534859897544E-15, 25.34729635533384595 ) ) ;
#52 = EDGE_LOOP ( 'NONE', ( #225 ) ) ;
#53 = AXIS2_PLACEMENT_3D ( 'NONE', #27, #237, #2 ) ;
#54 = EDGE_LOOP ( 'NONE', ( #190 ) ) ;
#55 = CARTESIAN_POINT ( 'NONE',  ( 3.491481338843133355E-14, 1.003714234546446718E-32, 10.00000000000000000 ) ) ;
#56 = FACE_OUTER_BOUND ( 'NONE', #76, .T. ) ;
#57 = AXIS2_PLACEMENT_3D ( 'NONE', #84, #12, #197 ) ;
#58 = DIRECTION ( 'NONE',  ( 3.491481338843133355E-15, -1.224646799147353454E-16, 1.000000000000000000 ) ) ;
#59 = EDGE_CURVE ( 'NONE', #271, #271, #185, .T. ) ;
#60 = CARTESIAN_POINT ( 'NONE',  ( 2.129803616694311221E-13, 1.199999999999993960, 61.00000000000000000 ) ) ;
#61 = DIRECTION ( 'NONE',  ( 3.491481338843133355E-15, -1.224646799147353454E-16, 1.000000000000000000 ) ) ;
#62 = AXIS2_PLACEMENT_3D ( 'NONE', #127, #215, #148 ) ;
#63 = AXIS2_PLACEMENT_3D ( 'NONE', #177, #42, #69 ) ;
#64 = PERSON_AND_ORGANIZATION_ROLE ( 'design_owner' ) ;
#65 = MANIFOLD_SOLID_BREP ( 'Corps-Déplacer/Copier1[2]', #125 ) ;
#66 = MECHANICAL_CONTEXT ( 'NONE', #192, 'mechanical' ) ;
#67 = EDGE_LOOP ( 'NONE', ( #9 ) ) ;
#68 = ADVANCED_FACE ( 'NONE', ( #168, #284 ), #31, .T. ) ;
#69 = DIRECTION ( 'NONE',  ( 1.000000000000000000, 0.0000000000000000000, 0.0000000000000000000 ) ) ;
#70 = PERSON_AND_ORGANIZATION ( #176, #249 ) ;
#71 = VERTEX_POINT ( 'NONE', #202 ) ;
#72 = ORIENTED_EDGE ( 'NONE', *, *, #159, .T. ) ;
#73 = DATE_AND_TIME ( #30, #213 ) ;
#74 = ORIENTED_EDGE ( 'NONE', *, *, #297, .F. ) ;
#75 = TOROIDAL_SURFACE ( 'NONE', #293, 3.124999999999999556, 2.000000000000000000 ) ;
#76 = EDGE_LOOP ( 'NONE', ( #20 ) ) ;
#77 = COORDINATED_UNIVERSAL_TIME_OFFSET ( 1, 0, .AHEAD. ) ;
#78 = DIRECTION ( 'NONE',  ( 3.491481338843133355E-15, -1.224646799147353454E-16, 1.000000000000000000 ) ) ;
#79 = APPROVAL_STATUS ( 'not_yet_approved' ) ;
#80 = DIRECTION ( 'NONE',  ( -3.491481338843133355E-15, 1.224646799147353454E-16, -1.000000000000000000 ) ) ;
#81 = ORIENTED_EDGE ( 'NONE', *, *, #59, .F. ) ;
#82 = AXIS2_PLACEMENT_3D ( 'NONE', #141, #78, #124 ) ;
#83 = APPROVAL_PERSON_ORGANIZATION ( #70, #182, #21 ) ;
#84 = CARTESIAN_POINT ( 'NONE',  ( 0.0000000000000000000, 0.0000000000000000000, 0.0000000000000000000 ) ) ;
#85 = CARTESIAN_POINT ( 'NONE',  ( 8.728703347107827472E-16, -3.061616997868381785E-17, 0.2499999999999998335 ) ) ;
#86 = FACE_OUTER_BOUND ( 'NONE', #103, .T. ) ;
#87 = VERTEX_POINT ( 'NONE', #105 ) ;
#88 = DIRECTION ( 'NONE',  ( -3.491481338843133355E-15, 1.224646799147353454E-16, -1.000000000000000000 ) ) ;
#89 = CIRCLE ( 'NONE', #221, 1.338500000000000023 ) ;
#90 = CC_DESIGN_APPROVAL ( #131, ( #286 ) ) ;
#91 = PERSON_AND_ORGANIZATION ( #176, #249 ) ;
#92 = CC_DESIGN_PERSON_AND_ORGANIZATION_ASSIGNMENT ( #45, #136, ( #40 ) ) ;
#93 = PERSON_AND_ORGANIZATION_ROLE ( 'creator' ) ;
#94 = EDGE_LOOP ( 'NONE', ( #178 ) ) ;
#95 = ADVANCED_FACE ( 'NONE', ( #118, #257 ), #75, .F. ) ;
#96 = AXIS2_PLACEMENT_3D ( 'NONE', #289, #287, #272 ) ;
#97 = ORIENTED_EDGE ( 'NONE', *, *, #38, .T. ) ;
#98 = PERSON_AND_ORGANIZATION ( #176, #249 ) ;
#99 = CIRCLE ( 'NONE', #133, 1.338499999999998691 ) ;
#100 = ORIENTED_EDGE ( 'NONE', *, *, #149, .F. ) ;
#101 = FACE_OUTER_BOUND ( 'NONE', #54, .T. ) ;
#102 = CONICAL_SURFACE ( 'NONE', #207, 1.200000000000001510, 0.7853981633974453924 ) ;
#103 = EDGE_LOOP ( 'NONE', ( #199 ) ) ;
#104 = DIRECTION ( 'NONE',  ( 0.0000000000000000000, 1.000000000000000000, 0.0000000000000000000 ) ) ;
#105 = CARTESIAN_POINT ( 'NONE',  ( 8.728703347107833388E-14, 1.124999999999996669, 25.00000000000000000 ) ) ;
#106 = ADVANCED_FACE ( 'NONE', ( #119 ), #254, .T. ) ;
#107 = CYLINDRICAL_SURFACE ( 'NONE', #262, 1.499999999999998668 ) ;
#108 = CIRCLE ( 'NONE', #240, 1.500000000000001332 ) ;
#109 = CARTESIAN_POINT ( 'NONE',  ( 0.0000000000000000000, 0.0000000000000000000, 0.0000000000000000000 ) ) ;
#110 = ADVANCED_FACE ( 'NONE', ( #184 ), #166, .F. ) ;
#111 = EDGE_LOOP ( 'NONE', ( #121 ) ) ;
#112 = AXIS2_PLACEMENT_3D ( 'NONE', #109, #88, #169 ) ;
#113 = CALENDAR_DATE ( 2021, 30, 11 ) ;
#114 = ORIENTED_EDGE ( 'NONE', *, *, #48, .F. ) ;
#115 = CALENDAR_DATE ( 2021, 30, 11 ) ;
#116 = AXIS2_PLACEMENT_3D ( 'NONE', #234, #186, #232 ) ;
#117 = DATE_TIME_ROLE ( 'classification_date' ) ;
#118 = FACE_OUTER_BOUND ( 'NONE', #278, .T. ) ;
#119 = FACE_OUTER_BOUND ( 'NONE', #222, .T. ) ;
#120 = APPROVAL_PERSON_ORGANIZATION ( #294, #123, #273 ) ;
#121 = ORIENTED_EDGE ( 'NONE', *, *, #59, .T. ) ;
#122 = DIRECTION ( 'NONE',  ( 4.275831445896959482E-31, 1.000000000000000000, 1.224646799147353454E-16 ) ) ;
#123 = APPROVAL ( #246, 'UNSPECIFIED' ) ;
#124 = DIRECTION ( 'NONE',  ( -4.316615489848123638E-31, -1.000000000000000000, -1.215019244473857542E-16 ) ) ;
#125 = CLOSED_SHELL ( 'NONE', ( #258, #68, #174, #106 ) ) ;
#126 = CYLINDRICAL_SURFACE ( 'NONE', #57, 1.124999999999998890 ) ;
#127 = CARTESIAN_POINT ( 'NONE',  ( -4.445754467012443910E-31, 1.559360755347989375E-32, -1.273314686678376686E-16 ) ) ;
#128 = CARTESIAN_POINT ( 'NONE',  ( 3.491481338843133355E-14, -1.224646799147353454E-15, 10.00000000000000000 ) ) ;
#129 = CARTESIAN_POINT ( 'NONE',  ( 0.0000000000000000000, 0.0000000000000000000, 0.0000000000000000000 ) ) ;
#130 = FACE_BOUND ( 'NONE', #140, .T. ) ;
#131 = APPROVAL ( #79, 'UNSPECIFIED' ) ;
#132 = CALENDAR_DATE ( 2021, 30, 11 ) ;
#133 = AXIS2_PLACEMENT_3D ( 'NONE', #85, #242, #290 ) ;
#134 = DATE_AND_TIME ( #132, #230 ) ;
#135 = CC_DESIGN_DATE_AND_TIME_ASSIGNMENT ( #134, #223, ( #292 ) ) ;
#136 = PERSON_AND_ORGANIZATION_ROLE ( 'creator' ) ;
#137 = EDGE_LOOP ( 'NONE', ( #152 ) ) ;
#138 = EDGE_CURVE ( 'NONE', #147, #147, #269, .T. ) ;
#139 = EDGE_LOOP ( 'NONE', ( #164 ) ) ;
#140 = EDGE_LOOP ( 'NONE', ( #299 ) ) ;
#141 = CARTESIAN_POINT ( 'NONE',  ( 8.728703347107827472E-16, -3.061616997868381785E-17, 0.2499999999999998335 ) ) ;
#142 = CARTESIAN_POINT ( 'NONE',  ( -8.891508934024887819E-31, 3.118721510695978749E-32, -2.546629373356753373E-16 ) ) ;
#143 = CARTESIAN_POINT ( 'NONE',  ( 3.620593821442183232E-14, -1.269933361840907991E-15, 10.36979284741596352 ) ) ;
#144 = CIRCLE ( 'NONE', #255, 1.194162432702594367 ) ;
#145 = FACE_OUTER_BOUND ( 'NONE', #274, .T. ) ;
#146 = VERTEX_POINT ( 'NONE', #36 ) ;
#147 = VERTEX_POINT ( 'NONE', #243 ) ;
#148 = DIRECTION ( 'NONE',  ( -4.275831445896959482E-31, -1.000000000000000000, -1.224646799147353454E-16 ) ) ;
#149 = EDGE_CURVE ( 'NONE', #15, #15, #44, .T. ) ;
#150 = LOCAL_TIME ( 10, 36, 55.00000000000000000, #233 ) ;
#151 = APPLICATION_PROTOCOL_DEFINITION ( 'international standard', 'config_control_design', 1994, #161 ) ;
#152 = ORIENTED_EDGE ( 'NONE', *, *, #149, .T. ) ;
#153 = CARTESIAN_POINT ( 'NONE',  ( 3.491481338843133355E-14, 1.338499999999998691, 10.00000000000000000 ) ) ;
#154 = PERSON_AND_ORGANIZATION ( #176, #249 ) ;
#155 = DATE_AND_TIME ( #115, #10 ) ;
#156 = APPROVAL_STATUS ( 'not_yet_approved' ) ;
#157 = PRODUCT_DEFINITION_SHAPE ( 'NONE', 'NONE',  #292 ) ;
#158 = SHAPE_DEFINITION_REPRESENTATION ( #157, #302 ) ;
#159 = EDGE_CURVE ( 'NONE', #71, #71, #108, .T. ) ;
#160 = AXIS2_PLACEMENT_3D ( 'NONE', #279, #261, #122 ) ;
#161 = APPLICATION_CONTEXT ( 'configuration controlled 3d designs of mechanical parts and assemblies' ) ;
#162 = MANIFOLD_SOLID_BREP ( 'Corps-Déplacer/Copier1[1]', #229 ) ;
#163 = DIRECTION ( 'NONE',  ( 0.0000000000000000000, 1.000000000000000000, 0.0000000000000000000 ) ) ;
#164 = ORIENTED_EDGE ( 'NONE', *, *, #297, .T. ) ;
#165 = ADVANCED_FACE ( 'NONE', ( #101, #3 ), #102, .T. ) ;
#166 = PLANE ( 'NONE',  #160 ) ;
#167 = CC_DESIGN_APPROVAL ( #123, ( #292 ) ) ;
#168 = FACE_BOUND ( 'NONE', #52, .T. ) ;
#169 = DIRECTION ( 'NONE',  ( 4.275831445896960358E-31, 1.000000000000000000, 1.224646799147353454E-16 ) ) ;
#170 = DIRECTION ( 'NONE',  ( 0.0000000000000000000, 1.000000000000000000, 0.0000000000000000000 ) ) ;
#171 = CC_DESIGN_DATE_AND_TIME_ASSIGNMENT ( #205, #117, ( #286 ) ) ;
#172 = AXIS2_PLACEMENT_3D ( 'NONE', #236, #32, #259 ) ;
#173 = FACE_BOUND ( 'NONE', #137, .T. ) ;
#174 = ADVANCED_FACE ( 'NONE', ( #191, #266 ), #218, .T. ) ;
#175 = DIRECTION ( 'NONE',  ( 0.0000000000000000000, -1.000000000000000000, 0.0000000000000000000 ) ) ;
#176 = PERSON ( 'UNSPECIFIED', 'UNSPECIFIED', 'UNSPECIFIED', ('UNSPECIFIED'), ('UNSPECIFIED'), ('UNSPECIFIED') ) ;
#177 = CARTESIAN_POINT ( 'NONE',  ( 0.0000000000000000000, 0.0000000000000000000, 0.0000000000000000000 ) ) ;
#178 = ORIENTED_EDGE ( 'NONE', *, *, #48, .T. ) ;
#179 = VERTEX_POINT ( 'NONE', #23 ) ;
#180 = CIRCLE ( 'NONE', #19, 1.338500000000000023 ) ;
#181 = COORDINATED_UNIVERSAL_TIME_OFFSET ( 1, 0, .AHEAD. ) ;
#182 = APPROVAL ( #156, 'UNSPECIFIED' ) ;
#183 = ORIENTED_EDGE ( 'NONE', *, *, #201, .T. ) ;
#184 = FACE_OUTER_BOUND ( 'NONE', #203, .T. ) ;
#185 = CIRCLE ( 'NONE', #53, 1.200000000000001510 ) ;
#186 = DIRECTION ( 'NONE',  ( -3.491481338843133355E-15, 1.224646799147353454E-16, -1.000000000000000000 ) ) ;
#187 = DIRECTION ( 'NONE',  ( 4.275831445896959482E-31, 1.000000000000000000, 1.224646799147353454E-16 ) ) ;
#188 = EDGE_LOOP ( 'NONE', ( #43 ) ) ;
#189 = AXIS2_PLACEMENT_3D ( 'NONE', #51, #33, #163 ) ;
#190 = ORIENTED_EDGE ( 'NONE', *, *, #159, .F. ) ;
#191 = FACE_OUTER_BOUND ( 'NONE', #49, .T. ) ;
#192 = APPLICATION_CONTEXT ( 'configuration controlled 3d designs of mechanical parts and assemblies' ) ;
#193 = ADVANCED_FACE ( 'NONE', ( #34, #173 ), #280, .T. ) ;
#194 = VERTEX_POINT ( 'NONE', #270 ) ;
#195 = DIRECTION ( 'NONE',  ( -3.491481338843133355E-15, 1.224646799147353454E-16, -1.000000000000000000 ) ) ;
#196 = LOCAL_TIME ( 10, 36, 55.00000000000000000, #277 ) ;
#197 = DIRECTION ( 'NONE',  ( 4.275831445896959482E-31, 1.000000000000000000, 1.224646799147353454E-16 ) ) ;
#198 =( NAMED_UNIT ( * ) SI_UNIT ( $, .STERADIAN. ) SOLID_ANGLE_UNIT ( ) );
#199 = ORIENTED_EDGE ( 'NONE', *, *, #283, .T. ) ;
#200 = VERTEX_POINT ( 'NONE', #227 ) ;
#201 = EDGE_CURVE ( 'NONE', #200, #200, #248, .T. ) ;
#202 = CARTESIAN_POINT ( 'NONE',  ( 2.119329172677781757E-13, 1.499999999999994005, 60.69999999999999574 ) ) ;
#203 = EDGE_LOOP ( 'NONE', ( #81 ) ) ;
#204 = DIRECTION ( 'NONE',  ( 4.275831445896959482E-31, 1.000000000000000000, 1.224646799147353454E-16 ) ) ;
#205 = DATE_AND_TIME ( #303, #150 ) ;
#206 = DIRECTION ( 'NONE',  ( 0.0000000000000000000, 1.000000000000000000, 0.0000000000000000000 ) ) ;
#207 = AXIS2_PLACEMENT_3D ( 'NONE', #239, #267, #37 ) ;
#208 = CARTESIAN_POINT ( 'NONE',  ( 8.728703347107833388E-14, -3.061616997868383831E-15, 25.00000000000000000 ) ) ;
#209 = APPROVAL_DATE_TIME ( #73, #131 ) ;
#210 = CARTESIAN_POINT ( 'NONE',  ( 2.119329172677781757E-13, -7.433606070824434221E-15, 60.69999999999999574 ) ) ;
#211 = CARTESIAN_POINT ( 'NONE',  ( 8.728703347107833388E-14, -3.035766082959412415E-15, 25.00000000000000000 ) ) ;
#212 = AXIS2_PLACEMENT_3D ( 'NONE', #55, #58, #244 ) ;
#213 = LOCAL_TIME ( 10, 36, 55.00000000000000000, #77 ) ;
#214 = FACE_OUTER_BOUND ( 'NONE', #228, .T. ) ;
#215 = DIRECTION ( 'NONE',  ( 3.491481338843133355E-15, -1.224646799147353454E-16, 1.000000000000000000 ) ) ;
#216 = DIRECTION ( 'NONE',  ( -3.491481338843133355E-15, 1.224646799147353454E-16, -1.000000000000000000 ) ) ;
#217 = FACE_OUTER_BOUND ( 'NONE', #188, .T. ) ;
#218 = CYLINDRICAL_SURFACE ( 'NONE', #112, 1.338499999999999357 ) ;
#219 = ADVANCED_FACE ( 'NONE', ( #56, #145 ), #107, .T. ) ;
#220 = APPLICATION_PROTOCOL_DEFINITION ( 'international standard', 'config_control_design', 1994, #192 ) ;
#221 = AXIS2_PLACEMENT_3D ( 'NONE', #128, #195, #104 ) ;
#222 = EDGE_LOOP ( 'NONE', ( #114 ) ) ;
#223 = DATE_TIME_ROLE ( 'creation_date' ) ;
#224 = PERSON_AND_ORGANIZATION_ROLE ( 'design_supplier' ) ;
#225 = ORIENTED_EDGE ( 'NONE', *, *, #38, .F. ) ;
#226 = ADVANCED_FACE ( 'NONE', ( #130, #17 ), #285, .T. ) ;
#227 = CARTESIAN_POINT ( 'NONE',  ( 9.532340403339405712E-14, 1.499999999999992673, 27.30170800940854647 ) ) ;
#228 = EDGE_LOOP ( 'NONE', ( #97 ) ) ;
#229 = CLOSED_SHELL ( 'NONE', ( #268, #193, #251, #95, #226, #219, #165, #110 ) ) ;
#230 = LOCAL_TIME ( 10, 36, 55.00000000000000000, #247 ) ;
#231 = DIRECTION ( 'NONE',  ( 0.0000000000000000000, 1.000000000000000000, 0.0000000000000000000 ) ) ;
#232 = DIRECTION ( 'NONE',  ( 0.0000000000000000000, 1.000000000000000000, 0.0000000000000000000 ) ) ;
#233 = COORDINATED_UNIVERSAL_TIME_OFFSET ( 1, 0, .AHEAD. ) ;
#234 = CARTESIAN_POINT ( 'NONE',  ( 3.620593821442183232E-14, -1.269933361840907991E-15, 10.36979284741596352 ) ) ;
#235 = CIRCLE ( 'NONE', #39, 1.124999999999999778 ) ;
#236 = CARTESIAN_POINT ( 'NONE',  ( 3.491481338843133355E-14, 1.003714234546446718E-32, 10.00000000000000000 ) ) ;
#237 = DIRECTION ( 'NONE',  ( -3.491481338843133355E-15, 1.224646799147353454E-16, -1.000000000000000000 ) ) ;
#238 = CC_DESIGN_PERSON_AND_ORGANIZATION_ASSIGNMENT ( #91, #93, ( #292 ) ) ;
#239 = CARTESIAN_POINT ( 'NONE',  ( 2.129803616694311221E-13, -7.470345474798856659E-15, 61.00000000000000000 ) ) ;
#240 = AXIS2_PLACEMENT_3D ( 'NONE', #210, #8, #206 ) ;
#241 = CARTESIAN_POINT ( 'NONE',  ( 9.532340403339405712E-14, -3.343494932497784210E-15, 27.30170800940854647 ) ) ;
#242 = DIRECTION ( 'NONE',  ( -3.491481338843133355E-15, 1.224646799147353454E-16, -1.000000000000000000 ) ) ;
#243 = CARTESIAN_POINT ( 'NONE',  ( 8.849961221477469775E-14, 1.155384493975577742, 25.34729635533384595 ) ) ;
#244 = DIRECTION ( 'NONE',  ( -4.275831445896959482E-31, -1.000000000000000000, -1.224646799147353454E-16 ) ) ;
#245 = CC_DESIGN_APPROVAL ( #182, ( #40 ) ) ;
#246 = APPROVAL_STATUS ( 'not_yet_approved' ) ;
#247 = COORDINATED_UNIVERSAL_TIME_OFFSET ( 1, 0, .AHEAD. ) ;
#248 = CIRCLE ( 'NONE', #96, 1.499999999999996003 ) ;
#249 = ORGANIZATION ( 'UNSPECIFIED', 'UNSPECIFIED', '' ) ;
#250 = APPROVAL_DATE_TIME ( #155, #182 ) ;
#251 = ADVANCED_FACE ( 'NONE', ( #11, #217 ), #126, .T. ) ;
#252 = ORIENTED_EDGE ( 'NONE', *, *, #138, .T. ) ;
#253 = PERSON_AND_ORGANIZATION ( #176, #249 ) ;
#254 = PLANE ( 'NONE',  #172 ) ;
#255 = AXIS2_PLACEMENT_3D ( 'NONE', #142, #5, #187 ) ;
#256 = CC_DESIGN_SECURITY_CLASSIFICATION ( #286, ( #40 ) ) ;
#257 = FACE_OUTER_BOUND ( 'NONE', #24, .T. ) ;
#258 = ADVANCED_FACE ( 'NONE', ( #214 ), #35, .F. ) ;
#259 = DIRECTION ( 'NONE',  ( -4.275831445896959482E-31, -1.000000000000000000, -1.224646799147353454E-16 ) ) ;
#260 = PRODUCT ( '200136', '200136', '', ( #66 ) ) ;
#261 = DIRECTION ( 'NONE',  ( -3.491481338843133355E-15, 1.224646799147353454E-16, -1.000000000000000000 ) ) ;
#262 = AXIS2_PLACEMENT_3D ( 'NONE', #129, #216, #41 ) ;
#263 =( GEOMETRIC_REPRESENTATION_CONTEXT ( 3 ) GLOBAL_UNCERTAINTY_ASSIGNED_CONTEXT ( ( #28 ) ) GLOBAL_UNIT_ASSIGNED_CONTEXT ( ( #275, #298, #198 ) ) REPRESENTATION_CONTEXT ( 'NONE', 'WORKASPACE' ) );
#264 = CARTESIAN_POINT ( 'NONE',  ( 3.491481338843133355E-14, -1.224646799147353454E-15, 10.00000000000000000 ) ) ;
#265 = CC_DESIGN_PERSON_AND_ORGANIZATION_ASSIGNMENT ( #253, #224, ( #40 ) ) ;
#266 = FACE_OUTER_BOUND ( 'NONE', #94, .T. ) ;
#267 = DIRECTION ( 'NONE',  ( -3.491481338843133355E-15, 1.224646799147353454E-16, -1.000000000000000000 ) ) ;
#268 = ADVANCED_FACE ( 'NONE', ( #86 ), #14, .F. ) ;
#269 = CIRCLE ( 'NONE', #189, 1.155384493975580629 ) ;
#270 = CARTESIAN_POINT ( 'NONE',  ( -3.785471652766323589E-31, 1.194162432702594367, -1.084202172485504434E-16 ) ) ;
#271 = VERTEX_POINT ( 'NONE', #60 ) ;
#272 = DIRECTION ( 'NONE',  ( 0.0000000000000000000, 1.000000000000000000, 0.0000000000000000000 ) ) ;
#273 = APPROVAL_ROLE ( '' ) ;
#274 = EDGE_LOOP ( 'NONE', ( #72 ) ) ;
#275 =( LENGTH_UNIT ( ) NAMED_UNIT ( * ) SI_UNIT ( .MILLI., .METRE. ) );
#276 = AXIS2_PLACEMENT_3D ( 'NONE', #143, #288, #170 ) ;
#277 = COORDINATED_UNIVERSAL_TIME_OFFSET ( 1, 0, .AHEAD. ) ;
#278 = EDGE_LOOP ( 'NONE', ( #282 ) ) ;
#279 = CARTESIAN_POINT ( 'NONE',  ( 2.129803616694311221E-13, 8.998558695971049855E-33, 61.00000000000000000 ) ) ;
#280 = CONICAL_SURFACE ( 'NONE', #276, 1.124999999999998224, 0.5235987755982939307 ) ;
#281 = DIRECTION ( 'NONE',  ( -3.491481338843133355E-15, 1.224646799147353454E-16, -1.000000000000000000 ) ) ;
#282 = ORIENTED_EDGE ( 'NONE', *, *, #26, .F. ) ;
#283 = EDGE_CURVE ( 'NONE', #18, #18, #89, .T. ) ;
#284 = FACE_OUTER_BOUND ( 'NONE', #139, .T. ) ;
#285 = CONICAL_SURFACE ( 'NONE', #301, 1.499999999999996003, 0.1745329251994262310 ) ;
#286 = SECURITY_CLASSIFICATION ( '', '', #22 ) ;
#287 = DIRECTION ( 'NONE',  ( -3.491481338843133355E-15, 1.224646799147353454E-16, -1.000000000000000000 ) ) ;
#288 = DIRECTION ( 'NONE',  ( -3.491481338843133355E-15, 1.224646799147353454E-16, -1.000000000000000000 ) ) ;
#289 = CARTESIAN_POINT ( 'NONE',  ( 9.532340403339405712E-14, -3.343494932497784210E-15, 27.30170800940854647 ) ) ;
#290 = DIRECTION ( 'NONE',  ( 4.316615489848123638E-31, 1.000000000000000000, 1.215019244473857542E-16 ) ) ;
#291 = CARTESIAN_POINT ( 'NONE',  ( 3.620593821442183232E-14, 1.124999999999996891, 10.36979284741596352 ) ) ;
#292 = PRODUCT_DEFINITION ( 'UNKNOWN', '', #40, #4 ) ;
#293 = AXIS2_PLACEMENT_3D ( 'NONE', #211, #281, #204 ) ;
#294 = PERSON_AND_ORGANIZATION ( #176, #249 ) ;
#295 = DATE_AND_TIME ( #113, #196 ) ;
#296 = EDGE_LOOP ( 'NONE', ( #183 ) ) ;
#297 = EDGE_CURVE ( 'NONE', #179, #179, #99, .T. ) ;
#298 =( NAMED_UNIT ( * ) PLANE_ANGLE_UNIT ( ) SI_UNIT ( $, .RADIAN. ) );
#299 = ORIENTED_EDGE ( 'NONE', *, *, #138, .F. ) ;
#300 = APPROVAL_DATE_TIME ( #295, #123 ) ;
#301 = AXIS2_PLACEMENT_3D ( 'NONE', #241, #61, #175 ) ;
#302 = ADVANCED_BREP_SHAPE_REPRESENTATION ( '200136', ( #162, #65, #63 ), #263 ) ;
#303 = CALENDAR_DATE ( 2021, 30, 11 ) ;
ENDSEC;
END-ISO-10303-21;
