ISO-10303-21;
HEADER;
FILE_DESCRIPTION (( 'STEP AP203' ),
    '1' );
FILE_NAME ('200135.step',
    '2021-11-30T06:44:55',
    ( '' ),
    ( '' ),
    'SwSTEP 2.0',
    'SolidWorks 2019',
    '' );
FILE_SCHEMA (( 'CONFIG_CONTROL_DESIGN' ));
ENDSEC;

DATA;
#1 = COORDINATED_UNIVERSAL_TIME_OFFSET ( 1, 0, .AHEAD. ) ;
#2 = APPROVAL_DATE_TIME ( #76, #180 ) ;
#3 = SECURITY_CLASSIFICATION ( '', '', #167 ) ;
#4 = EDGE_LOOP ( 'NONE', ( #28 ) ) ;
#5 = AXIS2_PLACEMENT_3D ( 'NONE', #12, #194, #298 ) ;
#6 = ORIENTED_EDGE ( 'NONE', *, *, #30, .T. ) ;
#7 = EDGE_LOOP ( 'NONE', ( #146 ) ) ;
#8 = DIRECTION ( 'NONE',  ( -4.275831445896958607E-31, -1.000000000000000000, -1.224646799147353207E-16 ) ) ;
#9 = ORIENTED_EDGE ( 'NONE', *, *, #237, .T. ) ;
#10 = CIRCLE ( 'NONE', #92, 1.019162432702589660 ) ;
#11 =( NAMED_UNIT ( * ) PLANE_ANGLE_UNIT ( ) SI_UNIT ( $, .RADIAN. ) );
#12 = CARTESIAN_POINT ( 'NONE',  ( 1.735266225405037467E-13, -6.086494591762345225E-15, 49.70000000000000284 ) ) ;
#13 = DIRECTION ( 'NONE',  ( 3.491481338843133355E-15, -1.224646799147353207E-16, 1.000000000000000000 ) ) ;
#14 = DIRECTION ( 'NONE',  ( 1.000000000000000000, 0.0000000000000000000, 0.0000000000000000000 ) ) ;
#15 = VERTEX_POINT ( 'NONE', #55 ) ;
#16 = DIRECTION ( 'NONE',  ( -3.491481338843133355E-15, 1.224646799147353207E-16, -1.000000000000000000 ) ) ;
#17 = CIRCLE ( 'NONE', #203, 1.200000000000001732 ) ;
#18 = APPROVAL_PERSON_ORGANIZATION ( #53, #208, #240 ) ;
#19 = CARTESIAN_POINT ( 'NONE',  ( 6.982962677686266711E-14, -2.449293598294706513E-15, 20.00000000000000000 ) ) ;
#20 = ORIENTED_EDGE ( 'NONE', *, *, #257, .T. ) ;
#21 = ADVANCED_FACE ( 'NONE', ( #82, #128 ), #42, .T. ) ;
#22 = DIRECTION ( 'NONE',  ( 4.275831445896958607E-31, 1.000000000000000000, 1.224646799147353207E-16 ) ) ;
#23 = PERSON_AND_ORGANIZATION ( #132, #256 ) ;
#24 = COORDINATED_UNIVERSAL_TIME_OFFSET ( 1, 0, .AHEAD. ) ;
#25 = AXIS2_PLACEMENT_3D ( 'NONE', #144, #300, #22 ) ;
#26 = LOCAL_TIME ( 7, 44, 55.00000000000000000, #1 ) ;
#27 = EDGE_CURVE ( 'NONE', #119, #119, #17, .T. ) ;
#28 = ORIENTED_EDGE ( 'NONE', *, *, #47, .T. ) ;
#29 = EDGE_LOOP ( 'NONE', ( #112 ) ) ;
#30 = EDGE_CURVE ( 'NONE', #123, #123, #219, .T. ) ;
#31 = LOCAL_TIME ( 7, 44, 55.00000000000000000, #285 ) ;
#32 = DIRECTION ( 'NONE',  ( -3.491481338843133355E-15, 1.224646799147353207E-16, -1.000000000000000000 ) ) ;
#33 = EDGE_LOOP ( 'NONE', ( #20 ) ) ;
#34 = CARTESIAN_POINT ( 'NONE',  ( 7.104220552055901835E-14, 1.040384493975578417, 20.34729635533384595 ) ) ;
#35 = CARTESIAN_POINT ( 'NONE',  ( 3.491481338843133355E-14, 8.724852535635302087E-33, 10.00000000000000000 ) ) ;
#36 = AXIS2_PLACEMENT_3D ( 'NONE', #35, #222, #102 ) ;
#37 = DIRECTION ( 'NONE',  ( 4.275831445896959482E-31, 1.000000000000000000, 1.224646799147353454E-16 ) ) ;
#38 = DIRECTION ( 'NONE',  ( 0.0000000000000000000, 1.000000000000000000, 0.0000000000000000000 ) ) ;
#39 = FACE_OUTER_BOUND ( 'NONE', #58, .T. ) ;
#40 = DIRECTION ( 'NONE',  ( -3.491481338843133355E-15, 1.224646799147353207E-16, -1.000000000000000000 ) ) ;
#41 = EDGE_CURVE ( 'NONE', #299, #299, #54, .T. ) ;
#42 = CONICAL_SURFACE ( 'NONE', #281, 1.009999999999999121, 0.5235987755982913772 ) ;
#43 = AXIS2_PLACEMENT_3D ( 'NONE', #97, #176, #197 ) ;
#44 = ADVANCED_FACE ( 'NONE', ( #214, #242 ), #246, .T. ) ;
#45 = CIRCLE ( 'NONE', #191, 1.010000000000000231 ) ;
#46 = DATE_AND_TIME ( #250, #133 ) ;
#47 = EDGE_CURVE ( 'NONE', #264, #264, #204, .T. ) ;
#48 = CIRCLE ( 'NONE', #178, 1.163499999999995316 ) ;
#49 = ORIENTED_EDGE ( 'NONE', *, *, #243, .F. ) ;
#50 = APPROVAL ( #129, 'UNSPECIFIED' ) ;
#51 = PERSON_AND_ORGANIZATION ( #132, #256 ) ;
#52 = EDGE_LOOP ( 'NONE', ( #228 ) ) ;
#53 = PERSON_AND_ORGANIZATION ( #132, #256 ) ;
#54 = CIRCLE ( 'NONE', #114, 1.163499999999995316 ) ;
#55 = CARTESIAN_POINT ( 'NONE',  ( 3.491481338843133355E-14, 1.163499999999993983, 10.00000000000000000 ) ) ;
#56 = ORIENTED_EDGE ( 'NONE', *, *, #270, .T. ) ;
#57 = VERTEX_POINT ( 'NONE', #164 ) ;
#58 = EDGE_LOOP ( 'NONE', ( #56 ) ) ;
#59 = CC_DESIGN_DATE_AND_TIME_ASSIGNMENT ( #46, #93, ( #202 ) ) ;
#60 = DIRECTION ( 'NONE',  ( 3.491481338843133355E-15, -1.224646799147353207E-16, 1.000000000000000000 ) ) ;
#61 = DIRECTION ( 'NONE',  ( -3.491481338843133355E-15, 1.224646799147353207E-16, -1.000000000000000000 ) ) ;
#62 = AXIS2_PLACEMENT_3D ( 'NONE', #140, #271, #78 ) ;
#63 = FACE_OUTER_BOUND ( 'NONE', #7, .T. ) ;
#64 = DIRECTION ( 'NONE',  ( -3.491481338843133355E-15, 1.224646799147353207E-16, -1.000000000000000000 ) ) ;
#65 = CARTESIAN_POINT ( 'NONE',  ( 1.735266225405037467E-13, 1.499999999999995559, 49.70000000000000284 ) ) ;
#66 = DIRECTION ( 'NONE',  ( -3.491481338843133355E-15, 1.224646799147353207E-16, -1.000000000000000000 ) ) ;
#67 = FACE_OUTER_BOUND ( 'NONE', #207, .T. ) ;
#68 = DATE_AND_TIME ( #247, #182 ) ;
#69 = APPROVAL_PERSON_ORGANIZATION ( #179, #50, #147 ) ;
#70 = DIRECTION ( 'NONE',  ( 3.491481338843133355E-15, -1.224646799147353207E-16, 1.000000000000000000 ) ) ;
#71 = APPLICATION_CONTEXT ( 'configuration controlled 3d designs of mechanical parts and assemblies' ) ;
#72 = DATE_AND_TIME ( #201, #26 ) ;
#73 = CALENDAR_DATE ( 2021, 30, 11 ) ;
#74 = UNCERTAINTY_MEASURE_WITH_UNIT (LENGTH_MEASURE( 1.000000000000000082E-05 ), #245, 'distance_accuracy_value', 'NONE');
#75 = DIRECTION ( 'NONE',  ( 0.0000000000000000000, 0.0000000000000000000, 1.000000000000000000 ) ) ;
#76 = DATE_AND_TIME ( #186, #31 ) ;
#77 = ORIENTED_EDGE ( 'NONE', *, *, #270, .F. ) ;
#78 = DIRECTION ( 'NONE',  ( 0.0000000000000000000, 1.000000000000000000, 0.0000000000000000000 ) ) ;
#79 = VERTEX_POINT ( 'NONE', #217 ) ;
#80 = DIRECTION ( 'NONE',  ( 0.0000000000000000000, 1.000000000000000000, 0.0000000000000000000 ) ) ;
#81 = CC_DESIGN_PERSON_AND_ORGANIZATION_ASSIGNMENT ( #109, #295, ( #282 ) ) ;
#82 = FACE_OUTER_BOUND ( 'NONE', #230, .T. ) ;
#83 = DIRECTION ( 'NONE',  ( -3.491481338843133355E-15, 1.224646799147353207E-16, -1.000000000000000000 ) ) ;
#84 = FACE_OUTER_BOUND ( 'NONE', #29, .T. ) ;
#85 = DIRECTION ( 'NONE',  ( 4.275831445896958607E-31, 1.000000000000000000, 1.224646799147353454E-16 ) ) ;
#86 = CARTESIAN_POINT ( 'NONE',  ( 1.745740669421566678E-13, 8.998558695971067645E-33, 50.00000000000000000 ) ) ;
#87 = DIRECTION ( 'NONE',  ( 0.0000000000000000000, -1.000000000000000000, 0.0000000000000000000 ) ) ;
#88 = DATE_TIME_ROLE ( 'classification_date' ) ;
#89 = ADVANCED_FACE ( 'NONE', ( #248, #39 ), #166, .T. ) ;
#90 = CONICAL_SURFACE ( 'NONE', #225, 1.499999999999996669, 0.1745329251994262032 ) ;
#91 = EDGE_LOOP ( 'NONE', ( #162 ) ) ;
#92 = AXIS2_PLACEMENT_3D ( 'NONE', #277, #177, #101 ) ;
#93 = DATE_TIME_ROLE ( 'creation_date' ) ;
#94 = DIRECTION ( 'NONE',  ( -3.491481338843133355E-15, 1.224646799147353207E-16, -1.000000000000000000 ) ) ;
#95 = EDGE_LOOP ( 'NONE', ( #263 ) ) ;
#96 = DIRECTION ( 'NONE',  ( 4.965870075772872542E-31, 1.000000000000000000, 1.397768163926312845E-16 ) ) ;
#97 = CARTESIAN_POINT ( 'NONE',  ( 0.0000000000000000000, 0.0000000000000000000, 0.0000000000000000000 ) ) ;
#98 = CARTESIAN_POINT ( 'NONE',  ( 8.728703347107829444E-16, -3.061616997868381785E-17, 0.2499999999999998890 ) ) ;
#99 = FACE_OUTER_BOUND ( 'NONE', #258, .T. ) ;
#100 = CC_DESIGN_DATE_AND_TIME_ASSIGNMENT ( #72, #88, ( #3 ) ) ;
#101 = DIRECTION ( 'NONE',  ( 4.275831445896957731E-31, 1.000000000000000000, 1.224646799147352961E-16 ) ) ;
#102 = DIRECTION ( 'NONE',  ( -4.275831445896958607E-31, -1.000000000000000000, -1.224646799147353207E-16 ) ) ;
#103 = CLOSED_SHELL ( 'NONE', ( #224, #21, #89, #157, #188, #229, #183, #168 ) ) ;
#104 = CARTESIAN_POINT ( 'NONE',  ( 0.0000000000000000000, 0.0000000000000000000, 0.0000000000000000000 ) ) ;
#105 = EDGE_LOOP ( 'NONE', ( #49 ) ) ;
#106 = FACE_OUTER_BOUND ( 'NONE', #209, .T. ) ;
#107 = PERSON_AND_ORGANIZATION_ROLE ( 'creator' ) ;
#108 = CC_DESIGN_PERSON_AND_ORGANIZATION_ASSIGNMENT ( #287, #283, ( #202 ) ) ;
#109 = PERSON_AND_ORGANIZATION ( #132, #256 ) ;
#110 = ADVANCED_FACE ( 'NONE', ( #99 ), #126, .F. ) ;
#111 = CIRCLE ( 'NONE', #62, 1.009999999999999121 ) ;
#112 = ORIENTED_EDGE ( 'NONE', *, *, #175, .F. ) ;
#113 =( GEOMETRIC_REPRESENTATION_CONTEXT ( 3 ) GLOBAL_UNCERTAINTY_ASSIGNED_CONTEXT ( ( #74 ) ) GLOBAL_UNIT_ASSIGNED_CONTEXT ( ( #245, #11, #267 ) ) REPRESENTATION_CONTEXT ( 'NONE', 'WORKASPACE' ) );
#114 = AXIS2_PLACEMENT_3D ( 'NONE', #265, #200, #294 ) ;
#115 = CC_DESIGN_PERSON_AND_ORGANIZATION_ASSIGNMENT ( #23, #107, ( #282 ) ) ;
#116 = CARTESIAN_POINT ( 'NONE',  ( 3.491481338843133355E-14, -1.224646799147353256E-15, 10.00000000000000000 ) ) ;
#117 = EDGE_LOOP ( 'NONE', ( #6 ) ) ;
#118 = PERSON_AND_ORGANIZATION_ROLE ( 'design_owner' ) ;
#119 = VERTEX_POINT ( 'NONE', #138 ) ;
#120 = DIRECTION ( 'NONE',  ( -3.491481338843133355E-15, 1.224646799147353207E-16, -1.000000000000000000 ) ) ;
#121 = VERTEX_POINT ( 'NONE', #65 ) ;
#122 = FACE_OUTER_BOUND ( 'NONE', #286, .T. ) ;
#123 = VERTEX_POINT ( 'NONE', #169 ) ;
#124 = DIRECTION ( 'NONE',  ( 0.0000000000000000000, 1.000000000000000000, 0.0000000000000000000 ) ) ;
#125 = DATE_AND_TIME ( #73, #227 ) ;
#126 = PLANE ( 'NONE',  #136 ) ;
#127 = CC_DESIGN_APPROVAL ( #208, ( #282 ) ) ;
#128 = FACE_BOUND ( 'NONE', #156, .T. ) ;
#129 = APPROVAL_STATUS ( 'not_yet_approved' ) ;
#130 = CC_DESIGN_PERSON_AND_ORGANIZATION_ASSIGNMENT ( #284, #118, ( #205 ) ) ;
#131 = SHAPE_DEFINITION_REPRESENTATION ( #231, #261 ) ;
#132 = PERSON ( 'UNSPECIFIED', 'UNSPECIFIED', 'UNSPECIFIED', ('UNSPECIFIED'), ('UNSPECIFIED'), ('UNSPECIFIED') ) ;
#133 = LOCAL_TIME ( 7, 44, 55.00000000000000000, #255 ) ;
#134 = EDGE_LOOP ( 'NONE', ( #206 ) ) ;
#135 = EDGE_LOOP ( 'NONE', ( #185 ) ) ;
#136 = AXIS2_PLACEMENT_3D ( 'NONE', #141, #13, #220 ) ;
#137 = ORIENTED_EDGE ( 'NONE', *, *, #27, .F. ) ;
#138 = CARTESIAN_POINT ( 'NONE',  ( 1.745740669421566678E-13, 1.199999999999995515, 50.00000000000000000 ) ) ;
#139 = DIRECTION ( 'NONE',  ( -3.491481338843133355E-15, 1.224646799147353207E-16, -1.000000000000000000 ) ) ;
#140 = CARTESIAN_POINT ( 'NONE',  ( 3.584309283006850656E-14, -1.257206458976207460E-15, 10.26586979896182150 ) ) ;
#141 = CARTESIAN_POINT ( 'NONE',  ( -3.125251302304868581E-31, 1.096190594324327762E-32, -8.951075486316041432E-17 ) ) ;
#142 = CIRCLE ( 'NONE', #253, 1.163499999999993983 ) ;
#143 = FACE_OUTER_BOUND ( 'NONE', #189, .T. ) ;
#144 = CARTESIAN_POINT ( 'NONE',  ( 6.982962677686266711E-14, -2.602085213965210642E-15, 20.00000000000000000 ) ) ;
#145 = DIRECTION ( 'NONE',  ( 3.491481338843133355E-15, -1.224646799147353207E-16, 1.000000000000000000 ) ) ;
#146 = ORIENTED_EDGE ( 'NONE', *, *, #175, .T. ) ;
#147 = APPROVAL_ROLE ( '' ) ;
#148 = CARTESIAN_POINT ( 'NONE',  ( 8.014313242283777947E-14, -2.811042679889870609E-15, 22.95390541866461476 ) ) ;
#149 = ADVANCED_FACE ( 'NONE', ( #122 ), #216, .T. ) ;
#150 = APPROVAL_PERSON_ORGANIZATION ( #51, #180, #184 ) ;
#151 = FACE_OUTER_BOUND ( 'NONE', #117, .T. ) ;
#152 = MANIFOLD_SOLID_BREP ( 'Corps-Déplacer/Copier1[2]', #232 ) ;
#153 = APPROVAL_DATE_TIME ( #125, #50 ) ;
#154 = CC_DESIGN_PERSON_AND_ORGANIZATION_ASSIGNMENT ( #269, #279, ( #3 ) ) ;
#155 = AXIS2_PLACEMENT_3D ( 'NONE', #301, #75, #14 ) ;
#156 = EDGE_LOOP ( 'NONE', ( #236 ) ) ;
#157 = ADVANCED_FACE ( 'NONE', ( #67, #165 ), #221, .F. ) ;
#158 = EDGE_LOOP ( 'NONE', ( #254 ) ) ;
#159 = APPLICATION_PROTOCOL_DEFINITION ( 'international standard', 'config_control_design', 1994, #71 ) ;
#160 = CARTESIAN_POINT ( 'NONE',  ( 8.728703347107835360E-16, 1.163499999999993983, 0.2500000000000000555 ) ) ;
#161 = CC_DESIGN_APPROVAL ( #50, ( #3 ) ) ;
#162 = ORIENTED_EDGE ( 'NONE', *, *, #41, .T. ) ;
#163 = APPROVAL_STATUS ( 'not_yet_approved' ) ;
#164 = CARTESIAN_POINT ( 'NONE',  ( 6.982962677686266711E-14, 1.009999999999997788, 20.00000000000000000 ) ) ;
#165 = FACE_OUTER_BOUND ( 'NONE', #4, .T. ) ;
#166 = CYLINDRICAL_SURFACE ( 'NONE', #233, 1.009999999999999565 ) ;
#167 = SECURITY_CLASSIFICATION_LEVEL ( 'unclassified' ) ;
#168 = ADVANCED_FACE ( 'NONE', ( #106 ), #196, .F. ) ;
#169 = CARTESIAN_POINT ( 'NONE',  ( 8.014313242283777947E-14, 1.499999999999994005, 22.95390541866461476 ) ) ;
#170 = FACE_BOUND ( 'NONE', #135, .T. ) ;
#171 = AXIS2_PLACEMENT_3D ( 'NONE', #273, #64, #124 ) ;
#172 = CARTESIAN_POINT ( 'NONE',  ( 3.491481338843133355E-14, 1.163499999999993983, 10.00000000000000000 ) ) ;
#173 = DIRECTION ( 'NONE',  ( 4.275831445896958607E-31, 1.000000000000000000, 1.224646799147353207E-16 ) ) ;
#174 = COORDINATED_UNIVERSAL_TIME_OFFSET ( 1, 0, .AHEAD. ) ;
#175 = EDGE_CURVE ( 'NONE', #121, #121, #249, .T. ) ;
#176 = DIRECTION ( 'NONE',  ( -3.491481338843133355E-15, 1.224646799147353207E-16, -1.000000000000000000 ) ) ;
#177 = DIRECTION ( 'NONE',  ( -3.491481338843133355E-15, 1.224646799147353207E-16, -1.000000000000000000 ) ) ;
#178 = AXIS2_PLACEMENT_3D ( 'NONE', #116, #190, #38 ) ;
#179 = PERSON_AND_ORGANIZATION ( #132, #256 ) ;
#180 = APPROVAL ( #226, 'UNSPECIFIED' ) ;
#181 = MECHANICAL_CONTEXT ( 'NONE', #234, 'mechanical' ) ;
#182 = LOCAL_TIME ( 7, 44, 55.00000000000000000, #24 ) ;
#183 = ADVANCED_FACE ( 'NONE', ( #84, #170 ), #187, .T. ) ;
#184 = APPROVAL_ROLE ( '' ) ;
#185 = ORIENTED_EDGE ( 'NONE', *, *, #27, .T. ) ;
#186 = CALENDAR_DATE ( 2021, 30, 11 ) ;
#187 = CONICAL_SURFACE ( 'NONE', #171, 1.200000000000001732, 0.7853981633974453924 ) ;
#188 = ADVANCED_FACE ( 'NONE', ( #275, #151 ), #90, .T. ) ;
#189 = EDGE_LOOP ( 'NONE', ( #9 ) ) ;
#190 = DIRECTION ( 'NONE',  ( -3.491481338843133355E-15, 1.224646799147353207E-16, -1.000000000000000000 ) ) ;
#191 = AXIS2_PLACEMENT_3D ( 'NONE', #19, #83, #210 ) ;
#192 = ORIENTED_EDGE ( 'NONE', *, *, #257, .F. ) ;
#193 = VERTEX_POINT ( 'NONE', #160 ) ;
#194 = DIRECTION ( 'NONE',  ( -3.491481338843133355E-15, 1.224646799147353207E-16, -1.000000000000000000 ) ) ;
#195 = APPLICATION_PROTOCOL_DEFINITION ( 'international standard', 'config_control_design', 1994, #234 ) ;
#196 = PLANE ( 'NONE',  #252 ) ;
#197 = DIRECTION ( 'NONE',  ( 4.275831445896958607E-31, 1.000000000000000000, 1.224646799147353207E-16 ) ) ;
#198 = AXIS2_PLACEMENT_3D ( 'NONE', #274, #60, #8 ) ;
#199 = CARTESIAN_POINT ( 'NONE',  ( 1.745740669421566678E-13, -6.123233995736766085E-15, 50.00000000000000000 ) ) ;
#200 = DIRECTION ( 'NONE',  ( -3.491481338843133355E-15, 1.224646799147353207E-16, -1.000000000000000000 ) ) ;
#201 = CALENDAR_DATE ( 2021, 30, 11 ) ;
#202 = PRODUCT_DEFINITION ( 'UNKNOWN', '', #282, #251 ) ;
#203 = AXIS2_PLACEMENT_3D ( 'NONE', #199, #61, #276 ) ;
#204 = CIRCLE ( 'NONE', #288, 1.040384493975580860 ) ;
#205 = PRODUCT ( '200135', '200135', '', ( #181 ) ) ;
#206 = ORIENTED_EDGE ( 'NONE', *, *, #212, .F. ) ;
#207 = EDGE_LOOP ( 'NONE', ( #77 ) ) ;
#208 = APPROVAL ( #163, 'UNSPECIFIED' ) ;
#209 = EDGE_LOOP ( 'NONE', ( #137 ) ) ;
#210 = DIRECTION ( 'NONE',  ( 0.0000000000000000000, 1.000000000000000000, 0.0000000000000000000 ) ) ;
#211 = VERTEX_POINT ( 'NONE', #215 ) ;
#212 = EDGE_CURVE ( 'NONE', #79, #79, #10, .T. ) ;
#213 = CC_DESIGN_SECURITY_CLASSIFICATION ( #3, ( #282 ) ) ;
#214 = FACE_OUTER_BOUND ( 'NONE', #52, .T. ) ;
#215 = CARTESIAN_POINT ( 'NONE',  ( 3.584309283006850656E-14, 1.009999999999997788, 10.26586979896182150 ) ) ;
#216 = PLANE ( 'NONE',  #36 ) ;
#217 = CARTESIAN_POINT ( 'NONE',  ( -1.892735826383161356E-31, 1.019162432702589660, -5.421010862427522170E-17 ) ) ;
#218 = DIRECTION ( 'NONE',  ( 0.0000000000000000000, 1.000000000000000000, 0.0000000000000000000 ) ) ;
#219 = CIRCLE ( 'NONE', #259, 1.499999999999996669 ) ;
#220 = DIRECTION ( 'NONE',  ( -4.275831445896958607E-31, -1.000000000000000000, -1.224646799147353207E-16 ) ) ;
#221 = TOROIDAL_SURFACE ( 'NONE', #25, 3.010000000000000675, 2.000000000000000444 ) ;
#222 = DIRECTION ( 'NONE',  ( 3.491481338843133355E-15, -1.224646799147353207E-16, 1.000000000000000000 ) ) ;
#223 = APPROVAL_DATE_TIME ( #68, #208 ) ;
#224 = ADVANCED_FACE ( 'NONE', ( #235 ), #297, .F. ) ;
#225 = AXIS2_PLACEMENT_3D ( 'NONE', #303, #70, #87 ) ;
#226 = APPROVAL_STATUS ( 'not_yet_approved' ) ;
#227 = LOCAL_TIME ( 7, 44, 55.00000000000000000, #174 ) ;
#228 = ORIENTED_EDGE ( 'NONE', *, *, #237, .F. ) ;
#229 = ADVANCED_FACE ( 'NONE', ( #241, #63 ), #289, .T. ) ;
#230 = EDGE_LOOP ( 'NONE', ( #192 ) ) ;
#231 = PRODUCT_DEFINITION_SHAPE ( 'NONE', 'NONE',  #202 ) ;
#232 = CLOSED_SHELL ( 'NONE', ( #110, #296, #44, #149 ) ) ;
#233 = AXIS2_PLACEMENT_3D ( 'NONE', #239, #16, #37 ) ;
#234 = APPLICATION_CONTEXT ( 'configuration controlled 3d designs of mechanical parts and assemblies' ) ;
#235 = FACE_OUTER_BOUND ( 'NONE', #33, .T. ) ;
#236 = ORIENTED_EDGE ( 'NONE', *, *, #243, .T. ) ;
#237 = EDGE_CURVE ( 'NONE', #193, #193, #142, .T. ) ;
#238 = FACE_BOUND ( 'NONE', #134, .T. ) ;
#239 = CARTESIAN_POINT ( 'NONE',  ( 0.0000000000000000000, 0.0000000000000000000, 0.0000000000000000000 ) ) ;
#240 = APPROVAL_ROLE ( '' ) ;
#241 = FACE_OUTER_BOUND ( 'NONE', #158, .T. ) ;
#242 = FACE_OUTER_BOUND ( 'NONE', #91, .T. ) ;
#243 = EDGE_CURVE ( 'NONE', #211, #211, #111, .T. ) ;
#244 = CARTESIAN_POINT ( 'NONE',  ( 7.104220552055901835E-14, -2.491825135286219831E-15, 20.34729635533384595 ) ) ;
#245 =( LENGTH_UNIT ( ) NAMED_UNIT ( * ) SI_UNIT ( .MILLI., .METRE. ) );
#246 = CYLINDRICAL_SURFACE ( 'NONE', #43, 1.163499999999994650 ) ;
#247 = CALENDAR_DATE ( 2021, 30, 11 ) ;
#248 = FACE_OUTER_BOUND ( 'NONE', #105, .T. ) ;
#249 = CIRCLE ( 'NONE', #5, 1.500000000000001554 ) ;
#250 = CALENDAR_DATE ( 2021, 30, 11 ) ;
#251 = DESIGN_CONTEXT ( 'detailed design', #71, 'design' ) ;
#252 = AXIS2_PLACEMENT_3D ( 'NONE', #86, #120, #173 ) ;
#253 = AXIS2_PLACEMENT_3D ( 'NONE', #98, #32, #96 ) ;
#254 = ORIENTED_EDGE ( 'NONE', *, *, #30, .F. ) ;
#255 = COORDINATED_UNIVERSAL_TIME_OFFSET ( 1, 0, .AHEAD. ) ;
#256 = ORGANIZATION ( 'UNSPECIFIED', 'UNSPECIFIED', '' ) ;
#257 = EDGE_CURVE ( 'NONE', #15, #15, #48, .T. ) ;
#258 = EDGE_LOOP ( 'NONE', ( #293 ) ) ;
#259 = AXIS2_PLACEMENT_3D ( 'NONE', #148, #139, #302 ) ;
#260 = AXIS2_PLACEMENT_3D ( 'NONE', #104, #94, #85 ) ;
#261 = ADVANCED_BREP_SHAPE_REPRESENTATION ( '200135', ( #266, #152, #155 ), #113 ) ;
#262 = DIRECTION ( 'NONE',  ( -4.965870075772872542E-31, -1.000000000000000000, -1.397768163926312845E-16 ) ) ;
#263 = ORIENTED_EDGE ( 'NONE', *, *, #47, .F. ) ;
#264 = VERTEX_POINT ( 'NONE', #34 ) ;
#265 = CARTESIAN_POINT ( 'NONE',  ( 3.491481338843133355E-14, -1.224646799147353256E-15, 10.00000000000000000 ) ) ;
#266 = MANIFOLD_SOLID_BREP ( 'Corps-Déplacer/Copier1[1]', #103 ) ;
#267 =( NAMED_UNIT ( * ) SI_UNIT ( $, .STERADIAN. ) SOLID_ANGLE_UNIT ( ) );
#268 = CARTESIAN_POINT ( 'NONE',  ( 3.584309283006850656E-14, -1.257206458976207460E-15, 10.26586979896182150 ) ) ;
#269 = PERSON_AND_ORGANIZATION ( #132, #256 ) ;
#270 = EDGE_CURVE ( 'NONE', #57, #57, #45, .T. ) ;
#271 = DIRECTION ( 'NONE',  ( -3.491481338843133355E-15, 1.224646799147353207E-16, -1.000000000000000000 ) ) ;
#272 = CONICAL_SURFACE ( 'NONE', #291, 1.163499999999993983, 0.5235987755982925984 ) ;
#273 = CARTESIAN_POINT ( 'NONE',  ( 1.745740669421566678E-13, -6.123233995736766085E-15, 50.00000000000000000 ) ) ;
#274 = CARTESIAN_POINT ( 'NONE',  ( 3.491481338843133355E-14, 8.724852535635302087E-33, 10.00000000000000000 ) ) ;
#275 = FACE_BOUND ( 'NONE', #95, .T. ) ;
#276 = DIRECTION ( 'NONE',  ( 0.0000000000000000000, 1.000000000000000000, 0.0000000000000000000 ) ) ;
#277 = CARTESIAN_POINT ( 'NONE',  ( -6.250502604609737162E-31, 2.192381188648655524E-32, -1.790215097263208286E-16 ) ) ;
#278 = CC_DESIGN_APPROVAL ( #180, ( #202 ) ) ;
#279 = PERSON_AND_ORGANIZATION_ROLE ( 'classification_officer' ) ;
#280 = PRODUCT_RELATED_PRODUCT_CATEGORY ( 'detail', '', ( #205 ) ) ;
#281 = AXIS2_PLACEMENT_3D ( 'NONE', #268, #66, #218 ) ;
#282 = PRODUCT_DEFINITION_FORMATION_WITH_SPECIFIED_SOURCE ( 'ANY', '', #205, .NOT_KNOWN. ) ;
#283 = PERSON_AND_ORGANIZATION_ROLE ( 'creator' ) ;
#284 = PERSON_AND_ORGANIZATION ( #132, #256 ) ;
#285 = COORDINATED_UNIVERSAL_TIME_OFFSET ( 1, 0, .AHEAD. ) ;
#286 = EDGE_LOOP ( 'NONE', ( #290 ) ) ;
#287 = PERSON_AND_ORGANIZATION ( #132, #256 ) ;
#288 = AXIS2_PLACEMENT_3D ( 'NONE', #244, #40, #80 ) ;
#289 = CYLINDRICAL_SURFACE ( 'NONE', #260, 1.499999999999999112 ) ;
#290 = ORIENTED_EDGE ( 'NONE', *, *, #41, .F. ) ;
#291 = AXIS2_PLACEMENT_3D ( 'NONE', #292, #145, #262 ) ;
#292 = CARTESIAN_POINT ( 'NONE',  ( 8.728703347107829444E-16, -3.061616997868381785E-17, 0.2499999999999998890 ) ) ;
#293 = ORIENTED_EDGE ( 'NONE', *, *, #212, .T. ) ;
#294 = DIRECTION ( 'NONE',  ( 0.0000000000000000000, 1.000000000000000000, 0.0000000000000000000 ) ) ;
#295 = PERSON_AND_ORGANIZATION_ROLE ( 'design_supplier' ) ;
#296 = ADVANCED_FACE ( 'NONE', ( #238, #143 ), #272, .T. ) ;
#297 = PLANE ( 'NONE',  #198 ) ;
#298 = DIRECTION ( 'NONE',  ( 0.0000000000000000000, 1.000000000000000000, 0.0000000000000000000 ) ) ;
#299 = VERTEX_POINT ( 'NONE', #172 ) ;
#300 = DIRECTION ( 'NONE',  ( -3.491481338843133355E-15, 1.224646799147353207E-16, -1.000000000000000000 ) ) ;
#301 = CARTESIAN_POINT ( 'NONE',  ( 0.0000000000000000000, 0.0000000000000000000, 0.0000000000000000000 ) ) ;
#302 = DIRECTION ( 'NONE',  ( 0.0000000000000000000, 1.000000000000000000, 0.0000000000000000000 ) ) ;
#303 = CARTESIAN_POINT ( 'NONE',  ( 8.014313242283777947E-14, -2.811042679889870609E-15, 22.95390541866461476 ) ) ;
ENDSEC;
END-ISO-10303-21;
