ISO-10303-21;
HEADER;
FILE_DESCRIPTION (( 'STEP AP203' ),
    '1' );
FILE_NAME ('200134.step',
    '2021-11-30T09:57:04',
    ( '' ),
    ( '' ),
    'SwSTEP 2.0',
    'SolidWorks 2019',
    '' );
FILE_SCHEMA (( 'CONFIG_CONTROL_DESIGN' ));
ENDSEC;

DATA;
#1 = ADVANCED_FACE ( 'NONE', ( #259 ), #78, .T. ) ;
#2 = CLOSED_SHELL ( 'NONE', ( #44, #126, #9, #1 ) ) ;
#3 = APPROVAL_PERSON_ORGANIZATION ( #231, #106, #190 ) ;
#4 = ORIENTED_EDGE ( 'NONE', *, *, #157, .T. ) ;
#5 = CONICAL_SURFACE ( 'NONE', #45, 1.249999999999998224, 0.5235987755982939307 ) ;
#6 = EDGE_LOOP ( 'NONE', ( #10 ) ) ;
#7 = VERTEX_POINT ( 'NONE', #233 ) ;
#8 = APPROVAL_DATE_TIME ( #186, #106 ) ;
#9 = ADVANCED_FACE ( 'NONE', ( #163, #261 ), #144, .T. ) ;
#10 = ORIENTED_EDGE ( 'NONE', *, *, #164, .F. ) ;
#11 = CARTESIAN_POINT ( 'NONE',  ( 8.728703347107833388E-16, 1.473499999999998700, 0.2500000000000000000 ) ) ;
#12 = ORIENTED_EDGE ( 'NONE', *, *, #243, .T. ) ;
#13 = CARTESIAN_POINT ( 'NONE',  ( 2.119329172677781757E-13, 1.499999999999994005, 60.69999999999999574 ) ) ;
#14 = CIRCLE ( 'NONE', #73, 1.473499999999998700 ) ;
#15 = EDGE_CURVE ( 'NONE', #96, #96, #275, .T. ) ;
#16 = CARTESIAN_POINT ( 'NONE',  ( 8.728703347107827472E-16, -3.061616997868381785E-17, 0.2499999999999998335 ) ) ;
#17 = APPROVAL_STATUS ( 'not_yet_approved' ) ;
#18 = CARTESIAN_POINT ( 'NONE',  ( 2.129803616694311221E-13, -7.470345474798856659E-15, 61.00000000000000000 ) ) ;
#19 = DIRECTION ( 'NONE',  ( -3.921133242729360369E-31, -1.000000000000000000, -1.103700888176625750E-16 ) ) ;
#20 = FACE_BOUND ( 'NONE', #84, .T. ) ;
#21 = PERSON_AND_ORGANIZATION_ROLE ( 'classification_officer' ) ;
#22 = EDGE_CURVE ( 'NONE', #263, #263, #129, .T. ) ;
#23 = DIRECTION ( 'NONE',  ( -3.491481338843133355E-15, 1.224646799147353454E-16, -1.000000000000000000 ) ) ;
#24 = FACE_BOUND ( 'NONE', #213, .T. ) ;
#25 = CC_DESIGN_APPROVAL ( #202, ( #234 ) ) ;
#26 = LOCAL_TIME ( 10, 57, 4.000000000000000000, #219 ) ;
#27 = PRODUCT_RELATED_PRODUCT_CATEGORY ( 'detail', '', ( #152 ) ) ;
#28 = DIRECTION ( 'NONE',  ( 0.0000000000000000000, 0.0000000000000000000, 1.000000000000000000 ) ) ;
#29 = CARTESIAN_POINT ( 'NONE',  ( 3.491481338843133355E-14, 1.104948019876122024E-32, 10.00000000000000000 ) ) ;
#30 = APPROVAL_STATUS ( 'not_yet_approved' ) ;
#31 = DIRECTION ( 'NONE',  ( 4.275831445896959482E-31, 1.000000000000000000, 1.224646799147353207E-16 ) ) ;
#32 = ORIENTED_EDGE ( 'NONE', *, *, #22, .T. ) ;
#33 = ORIENTED_EDGE ( 'NONE', *, *, #243, .F. ) ;
#34 = DIRECTION ( 'NONE',  ( 4.275831445896960358E-31, 1.000000000000000000, 1.224646799147353454E-16 ) ) ;
#35 = CALENDAR_DATE ( 2021, 30, 11 ) ;
#36 = CIRCLE ( 'NONE', #113, 1.249999999999998224 ) ;
#37 = DIRECTION ( 'NONE',  ( 0.0000000000000000000, 1.000000000000000000, 0.0000000000000000000 ) ) ;
#38 = CARTESIAN_POINT ( 'NONE',  ( 3.491481338843133355E-14, 1.104948019876122024E-32, 10.00000000000000000 ) ) ;
#39 = APPROVAL_ROLE ( '' ) ;
#40 = FACE_OUTER_BOUND ( 'NONE', #168, .T. ) ;
#41 = APPROVAL_DATE_TIME ( #89, #69 ) ;
#42 = FACE_OUTER_BOUND ( 'NONE', #117, .T. ) ;
#43 = DIRECTION ( 'NONE',  ( 4.275831445896960358E-31, 1.000000000000000000, 1.224646799147353454E-16 ) ) ;
#44 = ADVANCED_FACE ( 'NONE', ( #194 ), #135, .F. ) ;
#45 = AXIS2_PLACEMENT_3D ( 'NONE', #59, #133, #293 ) ;
#46 = ADVANCED_FACE ( 'NONE', ( #42, #158 ), #296, .T. ) ;
#47 = CONICAL_SURFACE ( 'NONE', #140, 1.499999999999996003, 0.1745329251994265640 ) ;
#48 = LOCAL_TIME ( 10, 57, 4.000000000000000000, #81 ) ;
#49 = UNCERTAINTY_MEASURE_WITH_UNIT (LENGTH_MEASURE( 1.000000000000000082E-05 ), #217, 'distance_accuracy_value', 'NONE');
#50 = ORIENTED_EDGE ( 'NONE', *, *, #95, .T. ) ;
#51 = VERTEX_POINT ( 'NONE', #76 ) ;
#52 = ORIENTED_EDGE ( 'NONE', *, *, #164, .T. ) ;
#53 = DIRECTION ( 'NONE',  ( 1.000000000000000000, 0.0000000000000000000, 0.0000000000000000000 ) ) ;
#54 = ORIENTED_EDGE ( 'NONE', *, *, #15, .F. ) ;
#55 = EDGE_LOOP ( 'NONE', ( #32 ) ) ;
#56 = DATE_TIME_ROLE ( 'creation_date' ) ;
#57 = ORIENTED_EDGE ( 'NONE', *, *, #22, .F. ) ;
#58 = VERTEX_POINT ( 'NONE', #11 ) ;
#59 = CARTESIAN_POINT ( 'NONE',  ( 3.626641244514738240E-14, -1.272054512318357685E-15, 10.38711335549165149 ) ) ;
#60 = AXIS2_PLACEMENT_3D ( 'NONE', #300, #222, #90 ) ;
#61 = APPROVAL_ROLE ( '' ) ;
#62 = DIRECTION ( 'NONE',  ( -3.491481338843133355E-15, 1.224646799147353454E-16, -1.000000000000000000 ) ) ;
#63 = ADVANCED_FACE ( 'NONE', ( #223, #150 ), #254, .F. ) ;
#64 = CARTESIAN_POINT ( 'NONE',  ( 8.728703347107833388E-14, -3.035766082959412415E-15, 25.00000000000000000 ) ) ;
#65 = CALENDAR_DATE ( 2021, 30, 11 ) ;
#66 = CARTESIAN_POINT ( 'NONE',  ( 3.626641244514738240E-14, -1.272054512318357685E-15, 10.38711335549165149 ) ) ;
#67 = CC_DESIGN_APPROVAL ( #69, ( #250 ) ) ;
#68 = DIRECTION ( 'NONE',  ( 0.0000000000000000000, 1.000000000000000000, 0.0000000000000000000 ) ) ;
#69 = APPROVAL ( #17, 'UNSPECIFIED' ) ;
#70 = DIRECTION ( 'NONE',  ( -3.491481338843133355E-15, 1.224646799147353454E-16, -1.000000000000000000 ) ) ;
#71 = AXIS2_PLACEMENT_3D ( 'NONE', #192, #291, #86 ) ;
#72 = CC_DESIGN_APPROVAL ( #106, ( #149 ) ) ;
#73 = AXIS2_PLACEMENT_3D ( 'NONE', #16, #23, #241 ) ;
#74 = AXIS2_PLACEMENT_3D ( 'NONE', #155, #276, #68 ) ;
#75 = EDGE_LOOP ( 'NONE', ( #50 ) ) ;
#76 = CARTESIAN_POINT ( 'NONE',  ( 2.129803616694311221E-13, 1.199999999999993960, 61.00000000000000000 ) ) ;
#77 = EDGE_CURVE ( 'NONE', #58, #58, #14, .T. ) ;
#78 = PLANE ( 'NONE',  #92 ) ;
#79 = COORDINATED_UNIVERSAL_TIME_OFFSET ( 1, 0, .AHEAD. ) ;
#80 = CARTESIAN_POINT ( 'NONE',  ( 3.491481338843133355E-14, -1.224646799147353454E-15, 10.00000000000000000 ) ) ;
#81 = COORDINATED_UNIVERSAL_TIME_OFFSET ( 1, 0, .AHEAD. ) ;
#82 = EDGE_LOOP ( 'NONE', ( #57 ) ) ;
#83 = VERTEX_POINT ( 'NONE', #13 ) ;
#84 = EDGE_LOOP ( 'NONE', ( #54 ) ) ;
#85 = EDGE_CURVE ( 'NONE', #227, #227, #240, .T. ) ;
#86 = DIRECTION ( 'NONE',  ( 0.0000000000000000000, 1.000000000000000000, 0.0000000000000000000 ) ) ;
#87 = FACE_OUTER_BOUND ( 'NONE', #55, .T. ) ;
#88 = FACE_BOUND ( 'NONE', #169, .T. ) ;
#89 = DATE_AND_TIME ( #35, #302 ) ;
#90 = DIRECTION ( 'NONE',  ( 0.0000000000000000000, 1.000000000000000000, 0.0000000000000000000 ) ) ;
#91 = DIRECTION ( 'NONE',  ( 0.0000000000000000000, 1.000000000000000000, 0.0000000000000000000 ) ) ;
#92 = AXIS2_PLACEMENT_3D ( 'NONE', #29, #118, #97 ) ;
#93 = FACE_OUTER_BOUND ( 'NONE', #183, .T. ) ;
#94 = EDGE_LOOP ( 'NONE', ( #161 ) ) ;
#95 = EDGE_CURVE ( 'NONE', #148, #148, #36, .T. ) ;
#96 = VERTEX_POINT ( 'NONE', #283 ) ;
#97 = DIRECTION ( 'NONE',  ( -4.275831445896959482E-31, -1.000000000000000000, -1.224646799147353454E-16 ) ) ;
#98 = ADVANCED_BREP_SHAPE_REPRESENTATION ( '200134', ( #115, #215, #114 ), #204 ) ;
#99 = CARTESIAN_POINT ( 'NONE',  ( -5.683274526454654580E-31, 1.993424361192350044E-32, -1.627754518756142119E-16 ) ) ;
#100 = PERSON_AND_ORGANIZATION_ROLE ( 'creator' ) ;
#101 = ORIENTED_EDGE ( 'NONE', *, *, #95, .F. ) ;
#102 = EDGE_CURVE ( 'NONE', #51, #51, #195, .T. ) ;
#103 = DIRECTION ( 'NONE',  ( -3.491481338843133355E-15, 1.224646799147353454E-16, -1.000000000000000000 ) ) ;
#104 = SHAPE_DEFINITION_REPRESENTATION ( #246, #98 ) ;
#105 = FACE_OUTER_BOUND ( 'NONE', #211, .T. ) ;
#106 = APPROVAL ( #30, 'UNSPECIFIED' ) ;
#107 = DIRECTION ( 'NONE',  ( -3.491481338843133355E-15, 1.224646799147353454E-16, -1.000000000000000000 ) ) ;
#108 = AXIS2_PLACEMENT_3D ( 'NONE', #253, #70, #43 ) ;
#109 = PERSON_AND_ORGANIZATION_ROLE ( 'creator' ) ;
#110 = DIRECTION ( 'NONE',  ( -4.275831445896959482E-31, -1.000000000000000000, -1.224646799147353454E-16 ) ) ;
#111 = CARTESIAN_POINT ( 'NONE',  ( 2.129803616694311221E-13, 8.998558695971049855E-33, 61.00000000000000000 ) ) ;
#112 = AXIS2_PLACEMENT_3D ( 'NONE', #80, #165, #273 ) ;
#113 = AXIS2_PLACEMENT_3D ( 'NONE', #66, #62, #156 ) ;
#114 = AXIS2_PLACEMENT_3D ( 'NONE', #285, #28, #53 ) ;
#115 = MANIFOLD_SOLID_BREP ( 'Corps-Déplacer/Copier1[1]', #205 ) ;
#116 = CC_DESIGN_DATE_AND_TIME_ASSIGNMENT ( #265, #56, ( #149 ) ) ;
#117 = EDGE_LOOP ( 'NONE', ( #101 ) ) ;
#118 = DIRECTION ( 'NONE',  ( 3.491481338843133355E-15, -1.224646799147353454E-16, 1.000000000000000000 ) ) ;
#119 = CALENDAR_DATE ( 2021, 30, 11 ) ;
#120 = CIRCLE ( 'NONE', #74, 1.499999999999996003 ) ;
#121 = ORGANIZATION ( 'UNSPECIFIED', 'UNSPECIFIED', '' ) ;
#122 = ORIENTED_EDGE ( 'NONE', *, *, #138, .F. ) ;
#123 = CARTESIAN_POINT ( 'NONE',  ( 9.284825720332949933E-14, 1.499999999999992673, 26.59279778195630328 ) ) ;
#124 = ORIENTED_EDGE ( 'NONE', *, *, #85, .F. ) ;
#125 =( NAMED_UNIT ( * ) SI_UNIT ( $, .STERADIAN. ) SOLID_ANGLE_UNIT ( ) );
#126 = ADVANCED_FACE ( 'NONE', ( #20, #105 ), #203, .T. ) ;
#127 = EDGE_LOOP ( 'NONE', ( #264 ) ) ;
#128 = CARTESIAN_POINT ( 'NONE',  ( 8.728703347107833388E-14, 1.249999999999996669, 25.00000000000000000 ) ) ;
#129 = CIRCLE ( 'NONE', #112, 1.473500000000000032 ) ;
#130 = DIRECTION ( 'NONE',  ( -3.491481338843133355E-15, 1.224646799147353454E-16, -1.000000000000000000 ) ) ;
#131 = AXIS2_PLACEMENT_3D ( 'NONE', #303, #214, #236 ) ;
#132 = PERSON_AND_ORGANIZATION ( #189, #121 ) ;
#133 = DIRECTION ( 'NONE',  ( -3.491481338843133355E-15, 1.224646799147353454E-16, -1.000000000000000000 ) ) ;
#134 = DIRECTION ( 'NONE',  ( 3.491481338843133355E-15, -1.224646799147353454E-16, 1.000000000000000000 ) ) ;
#135 = PLANE ( 'NONE',  #167 ) ;
#136 = DATE_AND_TIME ( #65, #26 ) ;
#137 = DIRECTION ( 'NONE',  ( -3.491481338843133355E-15, 1.224646799147353454E-16, -1.000000000000000000 ) ) ;
#138 = EDGE_CURVE ( 'NONE', #166, #166, #171, .T. ) ;
#139 = DIRECTION ( 'NONE',  ( -3.491481338843133355E-15, 1.224646799147353454E-16, -1.000000000000000000 ) ) ;
#140 = AXIS2_PLACEMENT_3D ( 'NONE', #176, #196, #271 ) ;
#141 = APPROVAL_PERSON_ORGANIZATION ( #248, #69, #61 ) ;
#142 = EDGE_LOOP ( 'NONE', ( #206 ) ) ;
#143 = VERTEX_POINT ( 'NONE', #123 ) ;
#144 = CYLINDRICAL_SURFACE ( 'NONE', #160, 1.473499999999999366 ) ;
#145 = APPLICATION_PROTOCOL_DEFINITION ( 'international standard', 'config_control_design', 1994, #191 ) ;
#146 = EDGE_LOOP ( 'NONE', ( #122 ) ) ;
#147 = CALENDAR_DATE ( 2021, 30, 11 ) ;
#148 = VERTEX_POINT ( 'NONE', #207 ) ;
#149 = PRODUCT_DEFINITION ( 'UNKNOWN', '', #250, #280 ) ;
#150 = FACE_OUTER_BOUND ( 'NONE', #142, .T. ) ;
#151 = CALENDAR_DATE ( 2021, 30, 11 ) ;
#152 = PRODUCT ( '200134', '200134', '', ( #162 ) ) ;
#153 = FACE_OUTER_BOUND ( 'NONE', #82, .T. ) ;
#154 = PERSON_AND_ORGANIZATION ( #189, #121 ) ;
#155 = CARTESIAN_POINT ( 'NONE',  ( 9.284825720332949933E-14, -3.256678468404562521E-15, 26.59279778195630328 ) ) ;
#156 = DIRECTION ( 'NONE',  ( 0.0000000000000000000, 1.000000000000000000, 0.0000000000000000000 ) ) ;
#157 = EDGE_CURVE ( 'NONE', #143, #143, #120, .T. ) ;
#158 = FACE_OUTER_BOUND ( 'NONE', #266, .T. ) ;
#159 = AXIS2_PLACEMENT_3D ( 'NONE', #111, #139, #225 ) ;
#160 = AXIS2_PLACEMENT_3D ( 'NONE', #232, #262, #31 ) ;
#161 = ORIENTED_EDGE ( 'NONE', *, *, #15, .T. ) ;
#162 = MECHANICAL_CONTEXT ( 'NONE', #230, 'mechanical' ) ;
#163 = FACE_OUTER_BOUND ( 'NONE', #282, .T. ) ;
#164 = EDGE_CURVE ( 'NONE', #7, #7, #201, .T. ) ;
#165 = DIRECTION ( 'NONE',  ( -3.491481338843133355E-15, 1.224646799147353454E-16, -1.000000000000000000 ) ) ;
#166 = VERTEX_POINT ( 'NONE', #128 ) ;
#167 = AXIS2_PLACEMENT_3D ( 'NONE', #172, #220, #110 ) ;
#168 = EDGE_LOOP ( 'NONE', ( #12 ) ) ;
#169 = EDGE_LOOP ( 'NONE', ( #124 ) ) ;
#170 = FACE_OUTER_BOUND ( 'NONE', #288, .T. ) ;
#171 = CIRCLE ( 'NONE', #178, 1.249999999999999778 ) ;
#172 = CARTESIAN_POINT ( 'NONE',  ( -2.841637263227327290E-31, 9.967121805961750222E-33, -8.138772593780710593E-17 ) ) ;
#173 = PERSON_AND_ORGANIZATION ( #189, #121 ) ;
#174 = DIRECTION ( 'NONE',  ( 0.0000000000000000000, 1.000000000000000000, 0.0000000000000000000 ) ) ;
#175 = CC_DESIGN_PERSON_AND_ORGANIZATION_ASSIGNMENT ( #245, #277, ( #250 ) ) ;
#176 = CARTESIAN_POINT ( 'NONE',  ( 9.284825720332949933E-14, -3.256678468404562521E-15, 26.59279778195630328 ) ) ;
#177 = DIRECTION ( 'NONE',  ( 4.275831445896959482E-31, 1.000000000000000000, 1.224646799147353454E-16 ) ) ;
#178 = AXIS2_PLACEMENT_3D ( 'NONE', #218, #103, #37 ) ;
#179 = LOCAL_TIME ( 10, 57, 4.000000000000000000, #252 ) ;
#180 = CYLINDRICAL_SURFACE ( 'NONE', #108, 1.499999999999998668 ) ;
#181 = CONICAL_SURFACE ( 'NONE', #131, 1.200000000000001510, 0.7853981633974453924 ) ;
#182 = ADVANCED_FACE ( 'NONE', ( #88, #170 ), #47, .T. ) ;
#183 = EDGE_LOOP ( 'NONE', ( #229 ) ) ;
#184 = APPLICATION_PROTOCOL_DEFINITION ( 'international standard', 'config_control_design', 1994, #230 ) ;
#185 = ORIENTED_EDGE ( 'NONE', *, *, #77, .F. ) ;
#186 = DATE_AND_TIME ( #119, #226 ) ;
#187 = DIRECTION ( 'NONE',  ( -3.491481338843133355E-15, 1.224646799147353454E-16, -1.000000000000000000 ) ) ;
#188 =( NAMED_UNIT ( * ) PLANE_ANGLE_UNIT ( ) SI_UNIT ( $, .RADIAN. ) );
#189 = PERSON ( 'UNSPECIFIED', 'UNSPECIFIED', 'UNSPECIFIED', ('UNSPECIFIED'), ('UNSPECIFIED'), ('UNSPECIFIED') ) ;
#190 = APPROVAL_ROLE ( '' ) ;
#191 = APPLICATION_CONTEXT ( 'configuration controlled 3d designs of mechanical parts and assemblies' ) ;
#192 = CARTESIAN_POINT ( 'NONE',  ( 3.491481338843133355E-14, -1.224646799147353454E-15, 10.00000000000000000 ) ) ;
#193 = APPROVAL_DATE_TIME ( #239, #202 ) ;
#194 = FACE_OUTER_BOUND ( 'NONE', #94, .T. ) ;
#195 = CIRCLE ( 'NONE', #290, 1.200000000000001510 ) ;
#196 = DIRECTION ( 'NONE',  ( 3.491481338843133355E-15, -1.224646799147353454E-16, 1.000000000000000000 ) ) ;
#197 = CC_DESIGN_PERSON_AND_ORGANIZATION_ASSIGNMENT ( #132, #109, ( #250 ) ) ;
#198 = CARTESIAN_POINT ( 'NONE',  ( 2.119329172677781757E-13, -7.433606070824434221E-15, 60.69999999999999574 ) ) ;
#199 = DIRECTION ( 'NONE',  ( -3.491481338843133355E-15, 1.224646799147353454E-16, -1.000000000000000000 ) ) ;
#200 = PLANE ( 'NONE',  #159 ) ;
#201 = CIRCLE ( 'NONE', #71, 1.473500000000000032 ) ;
#202 = APPROVAL ( #268, 'UNSPECIFIED' ) ;
#203 = CONICAL_SURFACE ( 'NONE', #281, 1.473499999999998700, 0.5235987755982920433 ) ;
#204 =( GEOMETRIC_REPRESENTATION_CONTEXT ( 3 ) GLOBAL_UNCERTAINTY_ASSIGNED_CONTEXT ( ( #49 ) ) GLOBAL_UNIT_ASSIGNED_CONTEXT ( ( #217, #188, #125 ) ) REPRESENTATION_CONTEXT ( 'NONE', 'WORKASPACE' ) );
#205 = CLOSED_SHELL ( 'NONE', ( #224, #209, #46, #63, #182, #256, #270, #258 ) ) ;
#206 = ORIENTED_EDGE ( 'NONE', *, *, #85, .T. ) ;
#207 = CARTESIAN_POINT ( 'NONE',  ( 3.626641244514738240E-14, 1.249999999999996891, 10.38711335549165149 ) ) ;
#208 = ORIENTED_EDGE ( 'NONE', *, *, #102, .T. ) ;
#209 = ADVANCED_FACE ( 'NONE', ( #153, #267 ), #5, .T. ) ;
#210 = PERSON_AND_ORGANIZATION ( #189, #121 ) ;
#211 = EDGE_LOOP ( 'NONE', ( #284 ) ) ;
#212 = CARTESIAN_POINT ( 'NONE',  ( 3.491481338843133355E-14, 1.473499999999998700, 10.00000000000000000 ) ) ;
#213 = EDGE_LOOP ( 'NONE', ( #208 ) ) ;
#214 = DIRECTION ( 'NONE',  ( -3.491481338843133355E-15, 1.224646799147353454E-16, -1.000000000000000000 ) ) ;
#215 = MANIFOLD_SOLID_BREP ( 'Corps-Déplacer/Copier1[2]', #2 ) ;
#216 = ORIENTED_EDGE ( 'NONE', *, *, #138, .T. ) ;
#217 =( LENGTH_UNIT ( ) NAMED_UNIT ( * ) SI_UNIT ( .MILLI., .METRE. ) );
#218 = CARTESIAN_POINT ( 'NONE',  ( 8.728703347107833388E-14, -3.061616997868383831E-15, 25.00000000000000000 ) ) ;
#219 = COORDINATED_UNIVERSAL_TIME_OFFSET ( 1, 0, .AHEAD. ) ;
#220 = DIRECTION ( 'NONE',  ( 3.491481338843133355E-15, -1.224646799147353454E-16, 1.000000000000000000 ) ) ;
#221 = DIRECTION ( 'NONE',  ( -4.275831445896959482E-31, -1.000000000000000000, -1.224646799147353454E-16 ) ) ;
#222 = DIRECTION ( 'NONE',  ( -3.491481338843133355E-15, 1.224646799147353454E-16, -1.000000000000000000 ) ) ;
#223 = FACE_OUTER_BOUND ( 'NONE', #146, .T. ) ;
#224 = ADVANCED_FACE ( 'NONE', ( #87 ), #244, .F. ) ;
#225 = DIRECTION ( 'NONE',  ( 4.275831445896959482E-31, 1.000000000000000000, 1.224646799147353454E-16 ) ) ;
#226 = LOCAL_TIME ( 10, 57, 4.000000000000000000, #79 ) ;
#227 = VERTEX_POINT ( 'NONE', #287 ) ;
#228 = CC_DESIGN_PERSON_AND_ORGANIZATION_ASSIGNMENT ( #210, #260, ( #152 ) ) ;
#229 = ORIENTED_EDGE ( 'NONE', *, *, #102, .F. ) ;
#230 = APPLICATION_CONTEXT ( 'configuration controlled 3d designs of mechanical parts and assemblies' ) ;
#231 = PERSON_AND_ORGANIZATION ( #189, #121 ) ;
#232 = CARTESIAN_POINT ( 'NONE',  ( 0.0000000000000000000, 0.0000000000000000000, 0.0000000000000000000 ) ) ;
#233 = CARTESIAN_POINT ( 'NONE',  ( 3.491481338843133355E-14, 1.473499999999998700, 10.00000000000000000 ) ) ;
#234 = SECURITY_CLASSIFICATION ( '', '', #298 ) ;
#235 = EDGE_LOOP ( 'NONE', ( #33 ) ) ;
#236 = DIRECTION ( 'NONE',  ( 0.0000000000000000000, 1.000000000000000000, 0.0000000000000000000 ) ) ;
#237 = EDGE_LOOP ( 'NONE', ( #52 ) ) ;
#238 = CC_DESIGN_DATE_AND_TIME_ASSIGNMENT ( #136, #242, ( #234 ) ) ;
#239 = DATE_AND_TIME ( #151, #179 ) ;
#240 = CIRCLE ( 'NONE', #60, 1.280384493975580851 ) ;
#241 = DIRECTION ( 'NONE',  ( 3.921133242729360369E-31, 1.000000000000000000, 1.103700888176625750E-16 ) ) ;
#242 = DATE_TIME_ROLE ( 'classification_date' ) ;
#243 = EDGE_CURVE ( 'NONE', #83, #83, #269, .T. ) ;
#244 = PLANE ( 'NONE',  #279 ) ;
#245 = PERSON_AND_ORGANIZATION ( #189, #121 ) ;
#246 = PRODUCT_DEFINITION_SHAPE ( 'NONE', 'NONE',  #149 ) ;
#247 = FACE_OUTER_BOUND ( 'NONE', #127, .T. ) ;
#248 = PERSON_AND_ORGANIZATION ( #189, #121 ) ;
#249 = AXIS2_PLACEMENT_3D ( 'NONE', #251, #137, #34 ) ;
#250 = PRODUCT_DEFINITION_FORMATION_WITH_SPECIFIED_SOURCE ( 'ANY', '', #152, .NOT_KNOWN. ) ;
#251 = CARTESIAN_POINT ( 'NONE',  ( 0.0000000000000000000, 0.0000000000000000000, 0.0000000000000000000 ) ) ;
#252 = COORDINATED_UNIVERSAL_TIME_OFFSET ( 1, 0, .AHEAD. ) ;
#253 = CARTESIAN_POINT ( 'NONE',  ( 0.0000000000000000000, 0.0000000000000000000, 0.0000000000000000000 ) ) ;
#254 = TOROIDAL_SURFACE ( 'NONE', #301, 3.250000000000000000, 2.000000000000000000 ) ;
#255 = CC_DESIGN_SECURITY_CLASSIFICATION ( #234, ( #250 ) ) ;
#256 = ADVANCED_FACE ( 'NONE', ( #247, #40 ), #180, .T. ) ;
#257 = AXIS2_PLACEMENT_3D ( 'NONE', #99, #187, #286 ) ;
#258 = ADVANCED_FACE ( 'NONE', ( #93 ), #200, .F. ) ;
#259 = FACE_OUTER_BOUND ( 'NONE', #6, .T. ) ;
#260 = PERSON_AND_ORGANIZATION_ROLE ( 'design_owner' ) ;
#261 = FACE_OUTER_BOUND ( 'NONE', #237, .T. ) ;
#262 = DIRECTION ( 'NONE',  ( -3.491481338843133355E-15, 1.224646799147353454E-16, -1.000000000000000000 ) ) ;
#263 = VERTEX_POINT ( 'NONE', #212 ) ;
#264 = ORIENTED_EDGE ( 'NONE', *, *, #157, .F. ) ;
#265 = DATE_AND_TIME ( #147, #48 ) ;
#266 = EDGE_LOOP ( 'NONE', ( #216 ) ) ;
#267 = FACE_BOUND ( 'NONE', #75, .T. ) ;
#268 = APPROVAL_STATUS ( 'not_yet_approved' ) ;
#269 = CIRCLE ( 'NONE', #294, 1.500000000000001332 ) ;
#270 = ADVANCED_FACE ( 'NONE', ( #278, #24 ), #181, .T. ) ;
#271 = DIRECTION ( 'NONE',  ( 0.0000000000000000000, -1.000000000000000000, 0.0000000000000000000 ) ) ;
#272 = CARTESIAN_POINT ( 'NONE',  ( 8.728703347107827472E-16, -3.061616997868381785E-17, 0.2499999999999998335 ) ) ;
#273 = DIRECTION ( 'NONE',  ( 0.0000000000000000000, 1.000000000000000000, 0.0000000000000000000 ) ) ;
#274 = COORDINATED_UNIVERSAL_TIME_OFFSET ( 1, 0, .AHEAD. ) ;
#275 = CIRCLE ( 'NONE', #257, 1.329162432702594598 ) ;
#276 = DIRECTION ( 'NONE',  ( -3.491481338843133355E-15, 1.224646799147353454E-16, -1.000000000000000000 ) ) ;
#277 = PERSON_AND_ORGANIZATION_ROLE ( 'design_supplier' ) ;
#278 = FACE_OUTER_BOUND ( 'NONE', #235, .T. ) ;
#279 = AXIS2_PLACEMENT_3D ( 'NONE', #38, #134, #221 ) ;
#280 = DESIGN_CONTEXT ( 'detailed design', #191, 'design' ) ;
#281 = AXIS2_PLACEMENT_3D ( 'NONE', #272, #297, #19 ) ;
#282 = EDGE_LOOP ( 'NONE', ( #185 ) ) ;
#283 = CARTESIAN_POINT ( 'NONE',  ( 0.0000000000000000000, 1.329162432702594598, 0.0000000000000000000 ) ) ;
#284 = ORIENTED_EDGE ( 'NONE', *, *, #77, .T. ) ;
#285 = CARTESIAN_POINT ( 'NONE',  ( 0.0000000000000000000, 0.0000000000000000000, 0.0000000000000000000 ) ) ;
#286 = DIRECTION ( 'NONE',  ( 4.275831445896958607E-31, 1.000000000000000000, 1.224646799147353454E-16 ) ) ;
#287 = CARTESIAN_POINT ( 'NONE',  ( 8.849961221477469775E-14, 1.280384493975577742, 25.34729635533384595 ) ) ;
#288 = EDGE_LOOP ( 'NONE', ( #4 ) ) ;
#289 = PERSON_AND_ORGANIZATION ( #189, #121 ) ;
#290 = AXIS2_PLACEMENT_3D ( 'NONE', #18, #130, #91 ) ;
#291 = DIRECTION ( 'NONE',  ( -3.491481338843133355E-15, 1.224646799147353454E-16, -1.000000000000000000 ) ) ;
#292 = CC_DESIGN_PERSON_AND_ORGANIZATION_ASSIGNMENT ( #173, #21, ( #234 ) ) ;
#293 = DIRECTION ( 'NONE',  ( 0.0000000000000000000, 1.000000000000000000, 0.0000000000000000000 ) ) ;
#294 = AXIS2_PLACEMENT_3D ( 'NONE', #198, #107, #174 ) ;
#295 = APPROVAL_PERSON_ORGANIZATION ( #154, #202, #39 ) ;
#296 = CYLINDRICAL_SURFACE ( 'NONE', #249, 1.249999999999998890 ) ;
#297 = DIRECTION ( 'NONE',  ( 3.491481338843133355E-15, -1.224646799147353454E-16, 1.000000000000000000 ) ) ;
#298 = SECURITY_CLASSIFICATION_LEVEL ( 'unclassified' ) ;
#299 = CC_DESIGN_PERSON_AND_ORGANIZATION_ASSIGNMENT ( #289, #100, ( #149 ) ) ;
#300 = CARTESIAN_POINT ( 'NONE',  ( 8.849961221477469775E-14, -3.104148534859897544E-15, 25.34729635533384595 ) ) ;
#301 = AXIS2_PLACEMENT_3D ( 'NONE', #64, #199, #177 ) ;
#302 = LOCAL_TIME ( 10, 57, 4.000000000000000000, #274 ) ;
#303 = CARTESIAN_POINT ( 'NONE',  ( 2.129803616694311221E-13, -7.470345474798856659E-15, 61.00000000000000000 ) ) ;
ENDSEC;
END-ISO-10303-21;
