ISO-10303-21;
HEADER;
FILE_DESCRIPTION (( 'STEP AP203' ),
    '1' );
FILE_NAME ('200133.step',
    '2021-11-30T09:57:04',
    ( '' ),
    ( '' ),
    'SwSTEP 2.0',
    'SolidWorks 2019',
    '' );
FILE_SCHEMA (( 'CONFIG_CONTROL_DESIGN' ));
ENDSEC;

DATA;
#1 = CARTESIAN_POINT ( 'NONE',  ( 9.284825720332949933E-14, -3.256678468404562521E-15, 26.59279778195630328 ) ) ;
#2 = DIRECTION ( 'NONE',  ( 4.275831445896960358E-31, 1.000000000000000000, 1.224646799147353700E-16 ) ) ;
#3 = DIRECTION ( 'NONE',  ( 0.0000000000000000000, 1.000000000000000000, 0.0000000000000000000 ) ) ;
#4 = AXIS2_PLACEMENT_3D ( 'NONE', #127, #271, #246 ) ;
#5 = FACE_BOUND ( 'NONE', #255, .T. ) ;
#6 = PRODUCT_DEFINITION_SHAPE ( 'NONE', 'NONE',  #129 ) ;
#7 = FACE_OUTER_BOUND ( 'NONE', #196, .T. ) ;
#8 = VERTEX_POINT ( 'NONE', #124 ) ;
#9 = VERTEX_POINT ( 'NONE', #32 ) ;
#10 = ADVANCED_FACE ( 'NONE', ( #84 ), #139, .F. ) ;
#11 = CARTESIAN_POINT ( 'NONE',  ( 2.129803616694311221E-13, 1.199999999999993960, 61.00000000000000000 ) ) ;
#12 = APPLICATION_PROTOCOL_DEFINITION ( 'international standard', 'config_control_design', 1994, #39 ) ;
#13 = AXIS2_PLACEMENT_3D ( 'NONE', #244, #219, #92 ) ;
#14 = EDGE_CURVE ( 'NONE', #210, #210, #36, .T. ) ;
#15 = PERSON_AND_ORGANIZATION_ROLE ( 'classification_officer' ) ;
#16 = DIRECTION ( 'NONE',  ( 0.0000000000000000000, 1.000000000000000000, 0.0000000000000000000 ) ) ;
#17 = PERSON_AND_ORGANIZATION_ROLE ( 'creator' ) ;
#18 = ORIENTED_EDGE ( 'NONE', *, *, #65, .F. ) ;
#19 = AXIS2_PLACEMENT_3D ( 'NONE', #287, #268, #118 ) ;
#20 = ORIENTED_EDGE ( 'NONE', *, *, #28, .T. ) ;
#21 = CC_DESIGN_DATE_AND_TIME_ASSIGNMENT ( #188, #278, ( #129 ) ) ;
#22 = PERSON_AND_ORGANIZATION ( #107, #69 ) ;
#23 = DIRECTION ( 'NONE',  ( 0.0000000000000000000, 1.000000000000000000, 0.0000000000000000000 ) ) ;
#24 = CYLINDRICAL_SURFACE ( 'NONE', #96, 1.249999999999998890 ) ;
#25 = DIRECTION ( 'NONE',  ( 4.275831445896959482E-31, 1.000000000000000000, 1.224646799147353454E-16 ) ) ;
#26 = CYLINDRICAL_SURFACE ( 'NONE', #116, 1.499999999999998668 ) ;
#27 = DIRECTION ( 'NONE',  ( -3.491481338843133355E-15, 1.224646799147353454E-16, -1.000000000000000000 ) ) ;
#28 = EDGE_CURVE ( 'NONE', #9, #9, #250, .T. ) ;
#29 = DIRECTION ( 'NONE',  ( 0.0000000000000000000, 1.000000000000000000, 0.0000000000000000000 ) ) ;
#30 = CARTESIAN_POINT ( 'NONE',  ( 3.614546398369628854E-14, 1.249999999999996891, 10.35247233934027378 ) ) ;
#31 = AXIS2_PLACEMENT_3D ( 'NONE', #72, #175, #229 ) ;
#32 = CARTESIAN_POINT ( 'NONE',  ( 2.119329172677781757E-13, 1.499999999999994005, 60.69999999999999574 ) ) ;
#33 = ADVANCED_FACE ( 'NONE', ( #111, #186 ), #166, .T. ) ;
#34 = VERTEX_POINT ( 'NONE', #248 ) ;
#35 =( NAMED_UNIT ( * ) SI_UNIT ( $, .STERADIAN. ) SOLID_ANGLE_UNIT ( ) );
#36 = CIRCLE ( 'NONE', #290, 1.249999999999999778 ) ;
#37 = APPROVAL_PERSON_ORGANIZATION ( #45, #147, #193 ) ;
#38 = DIRECTION ( 'NONE',  ( -3.491481338843133355E-15, 1.224646799147353454E-16, -1.000000000000000000 ) ) ;
#39 = APPLICATION_CONTEXT ( 'configuration controlled 3d designs of mechanical parts and assemblies' ) ;
#40 = CALENDAR_DATE ( 2021, 30, 11 ) ;
#41 = EDGE_LOOP ( 'NONE', ( #162 ) ) ;
#42 = EDGE_LOOP ( 'NONE', ( #212 ) ) ;
#43 = ADVANCED_FACE ( 'NONE', ( #47, #214 ), #206, .T. ) ;
#44 = AXIS2_PLACEMENT_3D ( 'NONE', #75, #242, #52 ) ;
#45 = PERSON_AND_ORGANIZATION ( #107, #69 ) ;
#46 = ORIENTED_EDGE ( 'NONE', *, *, #198, .F. ) ;
#47 = FACE_OUTER_BOUND ( 'NONE', #303, .T. ) ;
#48 = CC_DESIGN_PERSON_AND_ORGANIZATION_ASSIGNMENT ( #247, #105, ( #129 ) ) ;
#49 = PLANE ( 'NONE',  #100 ) ;
#50 = CARTESIAN_POINT ( 'NONE',  ( -4.691614775151518999E-31, 1.645596942851046269E-32, -1.343731877629349525E-16 ) ) ;
#51 = FACE_OUTER_BOUND ( 'NONE', #299, .T. ) ;
#52 = DIRECTION ( 'NONE',  ( 3.975087604514422033E-31, 1.000000000000000000, 1.118887690903514290E-16 ) ) ;
#53 = AXIS2_PLACEMENT_3D ( 'NONE', #164, #38, #16 ) ;
#54 = FACE_OUTER_BOUND ( 'NONE', #138, .T. ) ;
#55 = VERTEX_POINT ( 'NONE', #292 ) ;
#56 = PRODUCT_RELATED_PRODUCT_CATEGORY ( 'detail', '', ( #85 ) ) ;
#57 = DATE_AND_TIME ( #272, #201 ) ;
#58 = CC_DESIGN_APPROVAL ( #76, ( #129 ) ) ;
#59 = VERTEX_POINT ( 'NONE', #30 ) ;
#60 = DIRECTION ( 'NONE',  ( 0.0000000000000000000, 0.0000000000000000000, 1.000000000000000000 ) ) ;
#61 = ADVANCED_FACE ( 'NONE', ( #189, #155 ), #209, .T. ) ;
#62 = DIRECTION ( 'NONE',  ( 0.0000000000000000000, 1.000000000000000000, 0.0000000000000000000 ) ) ;
#63 = CALENDAR_DATE ( 2021, 30, 11 ) ;
#64 = DIRECTION ( 'NONE',  ( 3.491481338843133355E-15, -1.224646799147353454E-16, 1.000000000000000000 ) ) ;
#65 = EDGE_CURVE ( 'NONE', #55, #55, #131, .T. ) ;
#66 = COORDINATED_UNIVERSAL_TIME_OFFSET ( 1, 0, .AHEAD. ) ;
#67 = EDGE_LOOP ( 'NONE', ( #260 ) ) ;
#68 = EDGE_LOOP ( 'NONE', ( #159 ) ) ;
#69 = ORGANIZATION ( 'UNSPECIFIED', 'UNSPECIFIED', '' ) ;
#70 = EDGE_LOOP ( 'NONE', ( #233 ) ) ;
#71 = EDGE_CURVE ( 'NONE', #59, #59, #173, .T. ) ;
#72 = CARTESIAN_POINT ( 'NONE',  ( 3.491481338843133355E-14, -1.224646799147353454E-15, 10.00000000000000000 ) ) ;
#73 = CARTESIAN_POINT ( 'NONE',  ( 8.849961221477469775E-14, -3.104148534859897544E-15, 25.34729635533384595 ) ) ;
#74 = SECURITY_CLASSIFICATION ( '', '', #108 ) ;
#75 = CARTESIAN_POINT ( 'NONE',  ( 8.728703347107827472E-16, -3.061616997868381785E-17, 0.2499999999999998335 ) ) ;
#76 = APPROVAL ( #80, 'UNSPECIFIED' ) ;
#77 = CARTESIAN_POINT ( 'NONE',  ( 0.0000000000000000000, 0.0000000000000000000, 0.0000000000000000000 ) ) ;
#78 = DIRECTION ( 'NONE',  ( 3.491481338843133355E-15, -1.224646799147353454E-16, 1.000000000000000000 ) ) ;
#79 = CIRCLE ( 'NONE', #13, 1.453500000000000014 ) ;
#80 = APPROVAL_STATUS ( 'not_yet_approved' ) ;
#81 = ADVANCED_FACE ( 'NONE', ( #243 ), #282, .F. ) ;
#82 = CARTESIAN_POINT ( 'NONE',  ( 9.284825720332949933E-14, 1.499999999999992673, 26.59279778195630328 ) ) ;
#83 = CARTESIAN_POINT ( 'NONE',  ( 3.614546398369628854E-14, -1.267812211363458297E-15, 10.35247233934027378 ) ) ;
#84 = FACE_OUTER_BOUND ( 'NONE', #157, .T. ) ;
#85 = PRODUCT ( '200133', '200133', '', ( #274 ) ) ;
#86 = PERSON_AND_ORGANIZATION_ROLE ( 'design_supplier' ) ;
#87 = EDGE_LOOP ( 'NONE', ( #113 ) ) ;
#88 = EDGE_LOOP ( 'NONE', ( #141 ) ) ;
#89 = COORDINATED_UNIVERSAL_TIME_OFFSET ( 1, 0, .AHEAD. ) ;
#90 = ORIENTED_EDGE ( 'NONE', *, *, #253, .T. ) ;
#91 = AXIS2_PLACEMENT_3D ( 'NONE', #1, #265, #93 ) ;
#92 = DIRECTION ( 'NONE',  ( 0.0000000000000000000, 1.000000000000000000, 0.0000000000000000000 ) ) ;
#93 = DIRECTION ( 'NONE',  ( 0.0000000000000000000, -1.000000000000000000, 0.0000000000000000000 ) ) ;
#94 = PLANE ( 'NONE',  #227 ) ;
#95 = CLOSED_SHELL ( 'NONE', ( #81, #33, #203, #152 ) ) ;
#96 = AXIS2_PLACEMENT_3D ( 'NONE', #77, #167, #142 ) ;
#97 = CARTESIAN_POINT ( 'NONE',  ( 2.129803616694311221E-13, -7.470345474798856659E-15, 61.00000000000000000 ) ) ;
#98 = DIRECTION ( 'NONE',  ( -3.491481338843133355E-15, 1.224646799147353454E-16, -1.000000000000000000 ) ) ;
#99 = APPLICATION_PROTOCOL_DEFINITION ( 'international standard', 'config_control_design', 1994, #187 ) ;
#100 = AXIS2_PLACEMENT_3D ( 'NONE', #204, #283, #240 ) ;
#101 = PERSON_AND_ORGANIZATION_ROLE ( 'design_owner' ) ;
#102 = CARTESIAN_POINT ( 'NONE',  ( 8.728703347107833388E-14, 1.249999999999996669, 25.00000000000000000 ) ) ;
#103 = CC_DESIGN_DATE_AND_TIME_ASSIGNMENT ( #213, #254, ( #74 ) ) ;
#104 = APPROVAL_PERSON_ORGANIZATION ( #205, #76, #176 ) ;
#105 = PERSON_AND_ORGANIZATION_ROLE ( 'creator' ) ;
#106 = DIRECTION ( 'NONE',  ( -3.491481338843133355E-15, 1.224646799147353454E-16, -1.000000000000000000 ) ) ;
#107 = PERSON ( 'UNSPECIFIED', 'UNSPECIFIED', 'UNSPECIFIED', ('UNSPECIFIED'), ('UNSPECIFIED'), ('UNSPECIFIED') ) ;
#108 = SECURITY_CLASSIFICATION_LEVEL ( 'unclassified' ) ;
#109 = CIRCLE ( 'NONE', #168, 1.499999999999996003 ) ;
#110 = DIRECTION ( 'NONE',  ( -3.491481338843133355E-15, 1.224646799147353454E-16, -1.000000000000000000 ) ) ;
#111 = FACE_BOUND ( 'NONE', #68, .T. ) ;
#112 = PERSON_AND_ORGANIZATION ( #107, #69 ) ;
#113 = ORIENTED_EDGE ( 'NONE', *, *, #238, .F. ) ;
#114 = MANIFOLD_SOLID_BREP ( 'Corps-Déplacer/Copier1[1]', #192 ) ;
#115 = EDGE_LOOP ( 'NONE', ( #281 ) ) ;
#116 = AXIS2_PLACEMENT_3D ( 'NONE', #197, #148, #286 ) ;
#117 = CARTESIAN_POINT ( 'NONE',  ( 3.491481338843133355E-14, 1.089950422049503612E-32, 10.00000000000000000 ) ) ;
#118 = DIRECTION ( 'NONE',  ( 0.0000000000000000000, 1.000000000000000000, 0.0000000000000000000 ) ) ;
#119 = DIRECTION ( 'NONE',  ( -4.275831445896959482E-31, -1.000000000000000000, -1.224646799147353454E-16 ) ) ;
#120 = UNCERTAINTY_MEASURE_WITH_UNIT (LENGTH_MEASURE( 1.000000000000000082E-05 ), #289, 'distance_accuracy_value', 'NONE');
#121 = AXIS2_PLACEMENT_3D ( 'NONE', #180, #60, #288 ) ;
#122 = FACE_OUTER_BOUND ( 'NONE', #41, .T. ) ;
#123 = PERSON_AND_ORGANIZATION ( #107, #69 ) ;
#124 = CARTESIAN_POINT ( 'NONE',  ( 8.728703347107833388E-16, 1.453499999999998682, 0.2500000000000000000 ) ) ;
#125 = CIRCLE ( 'NONE', #207, 1.309162432702594137 ) ;
#126 = AXIS2_PLACEMENT_3D ( 'NONE', #241, #169, #25 ) ;
#127 = CARTESIAN_POINT ( 'NONE',  ( 8.728703347107833388E-14, -3.035766082959412415E-15, 25.00000000000000000 ) ) ;
#128 = FACE_OUTER_BOUND ( 'NONE', #135, .T. ) ;
#129 = PRODUCT_DEFINITION ( 'UNKNOWN', '', #297, #267 ) ;
#130 = VERTEX_POINT ( 'NONE', #82 ) ;
#131 = CIRCLE ( 'NONE', #296, 1.280384493975580851 ) ;
#132 = ADVANCED_BREP_SHAPE_REPRESENTATION ( '200133', ( #114, #228, #121 ), #258 ) ;
#133 = EDGE_LOOP ( 'NONE', ( #301 ) ) ;
#134 = PERSON_AND_ORGANIZATION ( #107, #69 ) ;
#135 = EDGE_LOOP ( 'NONE', ( #275 ) ) ;
#136 = CALENDAR_DATE ( 2021, 30, 11 ) ;
#137 = TOROIDAL_SURFACE ( 'NONE', #4, 3.250000000000000000, 2.000000000000000000 ) ;
#138 = EDGE_LOOP ( 'NONE', ( #20 ) ) ;
#139 = PLANE ( 'NONE',  #194 ) ;
#140 = ADVANCED_FACE ( 'NONE', ( #51 ), #49, .F. ) ;
#141 = ORIENTED_EDGE ( 'NONE', *, *, #177, .T. ) ;
#142 = DIRECTION ( 'NONE',  ( 4.275831445896960358E-31, 1.000000000000000000, 1.224646799147353454E-16 ) ) ;
#143 = EDGE_CURVE ( 'NONE', #208, #208, #276, .T. ) ;
#144 = CYLINDRICAL_SURFACE ( 'NONE', #126, 1.453499999999999348 ) ;
#145 = FACE_OUTER_BOUND ( 'NONE', #87, .T. ) ;
#146 = FACE_OUTER_BOUND ( 'NONE', #217, .T. ) ;
#147 = APPROVAL ( #236, 'UNSPECIFIED' ) ;
#148 = DIRECTION ( 'NONE',  ( -3.491481338843133355E-15, 1.224646799147353454E-16, -1.000000000000000000 ) ) ;
#149 = COORDINATED_UNIVERSAL_TIME_OFFSET ( 1, 0, .AHEAD. ) ;
#150 = APPROVAL_DATE_TIME ( #57, #76 ) ;
#151 = AXIS2_PLACEMENT_3D ( 'NONE', #50, #78, #220 ) ;
#152 = ADVANCED_FACE ( 'NONE', ( #122 ), #94, .T. ) ;
#153 = ADVANCED_FACE ( 'NONE', ( #7, #199 ), #24, .T. ) ;
#154 = LOCAL_TIME ( 10, 57, 4.000000000000000000, #216 ) ;
#155 = FACE_OUTER_BOUND ( 'NONE', #280, .T. ) ;
#156 = APPROVAL_ROLE ( '' ) ;
#157 = EDGE_LOOP ( 'NONE', ( #218 ) ) ;
#158 = APPROVAL_STATUS ( 'not_yet_approved' ) ;
#159 = ORIENTED_EDGE ( 'NONE', *, *, #177, .F. ) ;
#160 = DATE_AND_TIME ( #136, #284 ) ;
#161 = CIRCLE ( 'NONE', #31, 1.453500000000000014 ) ;
#162 = ORIENTED_EDGE ( 'NONE', *, *, #253, .F. ) ;
#163 = CC_DESIGN_PERSON_AND_ORGANIZATION_ASSIGNMENT ( #259, #15, ( #74 ) ) ;
#164 = CARTESIAN_POINT ( 'NONE',  ( 2.119329172677781757E-13, -7.433606070824434221E-15, 60.69999999999999574 ) ) ;
#165 = DIRECTION ( 'NONE',  ( -3.491481338843133355E-15, 1.224646799147353454E-16, -1.000000000000000000 ) ) ;
#166 = CONICAL_SURFACE ( 'NONE', #273, 1.453499999999998682, 0.5235987755982924874 ) ;
#167 = DIRECTION ( 'NONE',  ( -3.491481338843133355E-15, 1.224646799147353454E-16, -1.000000000000000000 ) ) ;
#168 = AXIS2_PLACEMENT_3D ( 'NONE', #266, #27, #171 ) ;
#169 = DIRECTION ( 'NONE',  ( -3.491481338843133355E-15, 1.224646799147353454E-16, -1.000000000000000000 ) ) ;
#170 = DIRECTION ( 'NONE',  ( 3.491481338843133355E-15, -1.224646799147353454E-16, 1.000000000000000000 ) ) ;
#171 = DIRECTION ( 'NONE',  ( 0.0000000000000000000, 1.000000000000000000, 0.0000000000000000000 ) ) ;
#172 = AXIS2_PLACEMENT_3D ( 'NONE', #200, #98, #285 ) ;
#173 = CIRCLE ( 'NONE', #172, 1.249999999999998224 ) ;
#174 = APPROVAL_PERSON_ORGANIZATION ( #22, #270, #156 ) ;
#175 = DIRECTION ( 'NONE',  ( -3.491481338843133355E-15, 1.224646799147353454E-16, -1.000000000000000000 ) ) ;
#176 = APPROVAL_ROLE ( '' ) ;
#177 = EDGE_CURVE ( 'NONE', #230, #230, #125, .T. ) ;
#178 = FACE_OUTER_BOUND ( 'NONE', #70, .T. ) ;
#179 = LOCAL_TIME ( 10, 57, 4.000000000000000000, #66 ) ;
#180 = CARTESIAN_POINT ( 'NONE',  ( 0.0000000000000000000, 0.0000000000000000000, 0.0000000000000000000 ) ) ;
#181 = VERTEX_POINT ( 'NONE', #225 ) ;
#182 = CALENDAR_DATE ( 2021, 30, 11 ) ;
#183 = DIRECTION ( 'NONE',  ( -3.491481338843133355E-15, 1.224646799147353454E-16, -1.000000000000000000 ) ) ;
#184 = AXIS2_PLACEMENT_3D ( 'NONE', #97, #224, #29 ) ;
#185 = DATE_AND_TIME ( #40, #154 ) ;
#186 = FACE_OUTER_BOUND ( 'NONE', #115, .T. ) ;
#187 = APPLICATION_CONTEXT ( 'configuration controlled 3d designs of mechanical parts and assemblies' ) ;
#188 = DATE_AND_TIME ( #63, #179 ) ;
#189 = FACE_BOUND ( 'NONE', #257, .T. ) ;
#190 = CC_DESIGN_PERSON_AND_ORGANIZATION_ASSIGNMENT ( #123, #101, ( #85 ) ) ;
#191 = ORIENTED_EDGE ( 'NONE', *, *, #71, .F. ) ;
#192 = CLOSED_SHELL ( 'NONE', ( #140, #43, #153, #302, #61, #245, #215, #10 ) ) ;
#193 = APPROVAL_ROLE ( '' ) ;
#194 = AXIS2_PLACEMENT_3D ( 'NONE', #293, #110, #237 ) ;
#195 = CC_DESIGN_APPROVAL ( #147, ( #74 ) ) ;
#196 = EDGE_LOOP ( 'NONE', ( #191 ) ) ;
#197 = CARTESIAN_POINT ( 'NONE',  ( 0.0000000000000000000, 0.0000000000000000000, 0.0000000000000000000 ) ) ;
#198 = EDGE_CURVE ( 'NONE', #130, #130, #109, .T. ) ;
#199 = FACE_OUTER_BOUND ( 'NONE', #67, .T. ) ;
#200 = CARTESIAN_POINT ( 'NONE',  ( 3.614546398369628854E-14, -1.267812211363458297E-15, 10.35247233934027378 ) ) ;
#201 = LOCAL_TIME ( 10, 57, 4.000000000000000000, #149 ) ;
#202 = CARTESIAN_POINT ( 'NONE',  ( -9.383229550303037998E-31, 3.291193885702092538E-32, -2.687463755258699050E-16 ) ) ;
#203 = ADVANCED_FACE ( 'NONE', ( #145, #221 ), #144, .T. ) ;
#204 = CARTESIAN_POINT ( 'NONE',  ( 3.491481338843133355E-14, 1.089950422049503612E-32, 10.00000000000000000 ) ) ;
#205 = PERSON_AND_ORGANIZATION ( #107, #69 ) ;
#206 = CONICAL_SURFACE ( 'NONE', #232, 1.249999999999998224, 0.5235987755982930425 ) ;
#207 = AXIS2_PLACEMENT_3D ( 'NONE', #202, #165, #2 ) ;
#208 = VERTEX_POINT ( 'NONE', #11 ) ;
#209 = CONICAL_SURFACE ( 'NONE', #91, 1.499999999999996003, 0.1745329251994265640 ) ;
#210 = VERTEX_POINT ( 'NONE', #102 ) ;
#211 = APPROVAL_DATE_TIME ( #160, #147 ) ;
#212 = ORIENTED_EDGE ( 'NONE', *, *, #71, .T. ) ;
#213 = DATE_AND_TIME ( #182, #263 ) ;
#214 = FACE_BOUND ( 'NONE', #42, .T. ) ;
#215 = ADVANCED_FACE ( 'NONE', ( #222, #5 ), #223, .T. ) ;
#216 = COORDINATED_UNIVERSAL_TIME_OFFSET ( 1, 0, .AHEAD. ) ;
#217 = EDGE_LOOP ( 'NONE', ( #46 ) ) ;
#218 = ORIENTED_EDGE ( 'NONE', *, *, #143, .F. ) ;
#219 = DIRECTION ( 'NONE',  ( -3.491481338843133355E-15, 1.224646799147353454E-16, -1.000000000000000000 ) ) ;
#220 = DIRECTION ( 'NONE',  ( -4.275831445896959482E-31, -1.000000000000000000, -1.224646799147353454E-16 ) ) ;
#221 = FACE_OUTER_BOUND ( 'NONE', #295, .T. ) ;
#222 = FACE_OUTER_BOUND ( 'NONE', #133, .T. ) ;
#223 = CONICAL_SURFACE ( 'NONE', #19, 1.200000000000001510, 0.7853981633974453924 ) ;
#224 = DIRECTION ( 'NONE',  ( -3.491481338843133355E-15, 1.224646799147353454E-16, -1.000000000000000000 ) ) ;
#225 = CARTESIAN_POINT ( 'NONE',  ( 3.491481338843133355E-14, 1.453499999999998682, 10.00000000000000000 ) ) ;
#226 = CC_DESIGN_PERSON_AND_ORGANIZATION_ASSIGNMENT ( #134, #86, ( #297 ) ) ;
#227 = AXIS2_PLACEMENT_3D ( 'NONE', #117, #170, #119 ) ;
#228 = MANIFOLD_SOLID_BREP ( 'Corps-Déplacer/Copier1[2]', #95 ) ;
#229 = DIRECTION ( 'NONE',  ( 0.0000000000000000000, 1.000000000000000000, 0.0000000000000000000 ) ) ;
#230 = VERTEX_POINT ( 'NONE', #249 ) ;
#231 =( NAMED_UNIT ( * ) PLANE_ANGLE_UNIT ( ) SI_UNIT ( $, .RADIAN. ) );
#232 = AXIS2_PLACEMENT_3D ( 'NONE', #83, #183, #62 ) ;
#233 = ORIENTED_EDGE ( 'NONE', *, *, #14, .F. ) ;
#234 = DIRECTION ( 'NONE',  ( -3.975087604514422033E-31, -1.000000000000000000, -1.118887690903514290E-16 ) ) ;
#235 = ORIENTED_EDGE ( 'NONE', *, *, #143, .T. ) ;
#236 = APPROVAL_STATUS ( 'not_yet_approved' ) ;
#237 = DIRECTION ( 'NONE',  ( 4.275831445896959482E-31, 1.000000000000000000, 1.224646799147353454E-16 ) ) ;
#238 = EDGE_CURVE ( 'NONE', #8, #8, #251, .T. ) ;
#239 = ORIENTED_EDGE ( 'NONE', *, *, #198, .T. ) ;
#240 = DIRECTION ( 'NONE',  ( -4.275831445896959482E-31, -1.000000000000000000, -1.224646799147353454E-16 ) ) ;
#241 = CARTESIAN_POINT ( 'NONE',  ( 0.0000000000000000000, 0.0000000000000000000, 0.0000000000000000000 ) ) ;
#242 = DIRECTION ( 'NONE',  ( -3.491481338843133355E-15, 1.224646799147353454E-16, -1.000000000000000000 ) ) ;
#243 = FACE_OUTER_BOUND ( 'NONE', #88, .T. ) ;
#244 = CARTESIAN_POINT ( 'NONE',  ( 3.491481338843133355E-14, -1.224646799147353454E-15, 10.00000000000000000 ) ) ;
#245 = ADVANCED_FACE ( 'NONE', ( #146, #54 ), #26, .T. ) ;
#246 = DIRECTION ( 'NONE',  ( 4.275831445896959482E-31, 1.000000000000000000, 1.224646799147353454E-16 ) ) ;
#247 = PERSON_AND_ORGANIZATION ( #107, #69 ) ;
#248 = CARTESIAN_POINT ( 'NONE',  ( 3.491481338843133355E-14, 1.453499999999998682, 10.00000000000000000 ) ) ;
#249 = CARTESIAN_POINT ( 'NONE',  ( -3.785471652766323589E-31, 1.309162432702594137, -1.084202172485504681E-16 ) ) ;
#250 = CIRCLE ( 'NONE', #53, 1.500000000000001332 ) ;
#251 = CIRCLE ( 'NONE', #44, 1.453499999999998682 ) ;
#252 = ORIENTED_EDGE ( 'NONE', *, *, #264, .T. ) ;
#253 = EDGE_CURVE ( 'NONE', #34, #34, #79, .T. ) ;
#254 = DATE_TIME_ROLE ( 'classification_date' ) ;
#255 = EDGE_LOOP ( 'NONE', ( #235 ) ) ;
#256 = SHAPE_DEFINITION_REPRESENTATION ( #6, #132 ) ;
#257 = EDGE_LOOP ( 'NONE', ( #18 ) ) ;
#258 =( GEOMETRIC_REPRESENTATION_CONTEXT ( 3 ) GLOBAL_UNCERTAINTY_ASSIGNED_CONTEXT ( ( #120 ) ) GLOBAL_UNIT_ASSIGNED_CONTEXT ( ( #289, #231, #35 ) ) REPRESENTATION_CONTEXT ( 'NONE', 'WORKASPACE' ) );
#259 = PERSON_AND_ORGANIZATION ( #107, #69 ) ;
#260 = ORIENTED_EDGE ( 'NONE', *, *, #14, .T. ) ;
#261 = CARTESIAN_POINT ( 'NONE',  ( 8.728703347107827472E-16, -3.061616997868381785E-17, 0.2499999999999998335 ) ) ;
#262 = DIRECTION ( 'NONE',  ( -3.491481338843133355E-15, 1.224646799147353454E-16, -1.000000000000000000 ) ) ;
#263 = LOCAL_TIME ( 10, 57, 4.000000000000000000, #89 ) ;
#264 = EDGE_CURVE ( 'NONE', #181, #181, #161, .T. ) ;
#265 = DIRECTION ( 'NONE',  ( 3.491481338843133355E-15, -1.224646799147353454E-16, 1.000000000000000000 ) ) ;
#266 = CARTESIAN_POINT ( 'NONE',  ( 9.284825720332949933E-14, -3.256678468404562521E-15, 26.59279778195630328 ) ) ;
#267 = DESIGN_CONTEXT ( 'detailed design', #187, 'design' ) ;
#268 = DIRECTION ( 'NONE',  ( -3.491481338843133355E-15, 1.224646799147353454E-16, -1.000000000000000000 ) ) ;
#269 = CC_DESIGN_APPROVAL ( #270, ( #297 ) ) ;
#270 = APPROVAL ( #158, 'UNSPECIFIED' ) ;
#271 = DIRECTION ( 'NONE',  ( -3.491481338843133355E-15, 1.224646799147353454E-16, -1.000000000000000000 ) ) ;
#272 = CALENDAR_DATE ( 2021, 30, 11 ) ;
#273 = AXIS2_PLACEMENT_3D ( 'NONE', #261, #64, #234 ) ;
#274 = MECHANICAL_CONTEXT ( 'NONE', #39, 'mechanical' ) ;
#275 = ORIENTED_EDGE ( 'NONE', *, *, #65, .T. ) ;
#276 = CIRCLE ( 'NONE', #184, 1.200000000000001510 ) ;
#277 = CARTESIAN_POINT ( 'NONE',  ( 8.728703347107833388E-14, -3.061616997868383831E-15, 25.00000000000000000 ) ) ;
#278 = DATE_TIME_ROLE ( 'creation_date' ) ;
#279 = ORIENTED_EDGE ( 'NONE', *, *, #264, .F. ) ;
#280 = EDGE_LOOP ( 'NONE', ( #239 ) ) ;
#281 = ORIENTED_EDGE ( 'NONE', *, *, #238, .T. ) ;
#282 = PLANE ( 'NONE',  #151 ) ;
#283 = DIRECTION ( 'NONE',  ( 3.491481338843133355E-15, -1.224646799147353454E-16, 1.000000000000000000 ) ) ;
#284 = LOCAL_TIME ( 10, 57, 4.000000000000000000, #298 ) ;
#285 = DIRECTION ( 'NONE',  ( 0.0000000000000000000, 1.000000000000000000, 0.0000000000000000000 ) ) ;
#286 = DIRECTION ( 'NONE',  ( 4.275831445896960358E-31, 1.000000000000000000, 1.224646799147353454E-16 ) ) ;
#287 = CARTESIAN_POINT ( 'NONE',  ( 2.129803616694311221E-13, -7.470345474798856659E-15, 61.00000000000000000 ) ) ;
#288 = DIRECTION ( 'NONE',  ( 1.000000000000000000, 0.0000000000000000000, 0.0000000000000000000 ) ) ;
#289 =( LENGTH_UNIT ( ) NAMED_UNIT ( * ) SI_UNIT ( .MILLI., .METRE. ) );
#290 = AXIS2_PLACEMENT_3D ( 'NONE', #277, #106, #23 ) ;
#291 = CC_DESIGN_SECURITY_CLASSIFICATION ( #74, ( #297 ) ) ;
#292 = CARTESIAN_POINT ( 'NONE',  ( 8.849961221477469775E-14, 1.280384493975577742, 25.34729635533384595 ) ) ;
#293 = CARTESIAN_POINT ( 'NONE',  ( 2.129803616694311221E-13, 8.998558695971049855E-33, 61.00000000000000000 ) ) ;
#294 = CC_DESIGN_PERSON_AND_ORGANIZATION_ASSIGNMENT ( #112, #17, ( #297 ) ) ;
#295 = EDGE_LOOP ( 'NONE', ( #90 ) ) ;
#296 = AXIS2_PLACEMENT_3D ( 'NONE', #73, #262, #3 ) ;
#297 = PRODUCT_DEFINITION_FORMATION_WITH_SPECIFIED_SOURCE ( 'ANY', '', #85, .NOT_KNOWN. ) ;
#298 = COORDINATED_UNIVERSAL_TIME_OFFSET ( 1, 0, .AHEAD. ) ;
#299 = EDGE_LOOP ( 'NONE', ( #252 ) ) ;
#300 = APPROVAL_DATE_TIME ( #185, #270 ) ;
#301 = ORIENTED_EDGE ( 'NONE', *, *, #28, .F. ) ;
#302 = ADVANCED_FACE ( 'NONE', ( #178, #128 ), #137, .F. ) ;
#303 = EDGE_LOOP ( 'NONE', ( #279 ) ) ;
ENDSEC;
END-ISO-10303-21;
