ISO-10303-21;
HEADER;
FILE_DESCRIPTION (( 'STEP AP203' ),
    '1' );
FILE_NAME ('200132.step',
    '2021-11-30T09:57:03',
    ( '' ),
    ( '' ),
    'SwSTEP 2.0',
    'SolidWorks 2019',
    '' );
FILE_SCHEMA (( 'CONFIG_CONTROL_DESIGN' ));
ENDSEC;

DATA;
#1 = FACE_OUTER_BOUND ( 'NONE', #152, .T. ) ;
#2 = CONICAL_SURFACE ( 'NONE', #104, 1.428499999999998771, 0.5235987755982920433 ) ;
#3 = DIRECTION ( 'NONE',  ( 0.0000000000000000000, 1.000000000000000000, 0.0000000000000000000 ) ) ;
#4 = DIRECTION ( 'NONE',  ( 4.275831445896959482E-31, 1.000000000000000000, 1.224646799147353700E-16 ) ) ;
#5 = FACE_OUTER_BOUND ( 'NONE', #111, .T. ) ;
#6 = LOCAL_TIME ( 10, 57, 3.000000000000000000, #155 ) ;
#7 = FACE_OUTER_BOUND ( 'NONE', #299, .T. ) ;
#8 = ADVANCED_FACE ( 'NONE', ( #249, #302 ), #154, .T. ) ;
#9 = VERTEX_POINT ( 'NONE', #12 ) ;
#10 = EDGE_CURVE ( 'NONE', #222, #222, #245, .T. ) ;
#11 = DIRECTION ( 'NONE',  ( -4.044655115968996960E-31, -1.000000000000000000, -1.138469204570009062E-16 ) ) ;
#12 = CARTESIAN_POINT ( 'NONE',  ( 9.334328656934240837E-14, 1.499999999999992673, 26.73457982744675121 ) ) ;
#13 = PERSON_AND_ORGANIZATION ( #161, #100 ) ;
#14 = EDGE_CURVE ( 'NONE', #77, #77, #276, .T. ) ;
#15 = ORIENTED_EDGE ( 'NONE', *, *, #73, .F. ) ;
#16 = EDGE_LOOP ( 'NONE', ( #113 ) ) ;
#17 = SECURITY_CLASSIFICATION_LEVEL ( 'unclassified' ) ;
#18 = EDGE_LOOP ( 'NONE', ( #15 ) ) ;
#19 = AXIS2_PLACEMENT_3D ( 'NONE', #74, #142, #97 ) ;
#20 = ADVANCED_FACE ( 'NONE', ( #295 ), #229, .T. ) ;
#21 = PERSON_AND_ORGANIZATION ( #161, #100 ) ;
#22 = ORIENTED_EDGE ( 'NONE', *, *, #185, .T. ) ;
#23 = ORIENTED_EDGE ( 'NONE', *, *, #10, .F. ) ;
#24 = DIRECTION ( 'NONE',  ( 0.0000000000000000000, -1.000000000000000000, 0.0000000000000000000 ) ) ;
#25 = AXIS2_PLACEMENT_3D ( 'NONE', #143, #242, #68 ) ;
#26 = DIRECTION ( 'NONE',  ( -3.491481338843133355E-15, 1.224646799147353454E-16, -1.000000000000000000 ) ) ;
#27 = CARTESIAN_POINT ( 'NONE',  ( -2.745431055694646076E-31, 9.629675854862832534E-33, -7.863227063972556116E-17 ) ) ;
#28 = CARTESIAN_POINT ( 'NONE',  ( 0.0000000000000000000, 0.0000000000000000000, 0.0000000000000000000 ) ) ;
#29 = APPROVAL ( #187, 'UNSPECIFIED' ) ;
#30 = CONICAL_SURFACE ( 'NONE', #270, 1.499999999999996003, 0.1745329251994264252 ) ;
#31 = FACE_BOUND ( 'NONE', #233, .T. ) ;
#32 = VERTEX_POINT ( 'NONE', #33 ) ;
#33 = CARTESIAN_POINT ( 'NONE',  ( 0.0000000000000000000, 1.284162432702594669, 0.0000000000000000000 ) ) ;
#34 = CARTESIAN_POINT ( 'NONE',  ( 3.491481338843133355E-14, 1.428499999999998771, 10.00000000000000000 ) ) ;
#35 = AXIS2_PLACEMENT_3D ( 'NONE', #83, #85, #181 ) ;
#36 = PERSON_AND_ORGANIZATION_ROLE ( 'design_owner' ) ;
#37 = CARTESIAN_POINT ( 'NONE',  ( 3.614546398369628854E-14, -1.267812211363458297E-15, 10.35247233934027378 ) ) ;
#38 = APPROVAL_ROLE ( '' ) ;
#39 = EDGE_LOOP ( 'NONE', ( #135 ) ) ;
#40 = PERSON_AND_ORGANIZATION_ROLE ( 'creator' ) ;
#41 = APPROVAL ( #159, 'UNSPECIFIED' ) ;
#42 = DIRECTION ( 'NONE',  ( -3.491481338843133355E-15, 1.224646799147353454E-16, -1.000000000000000000 ) ) ;
#43 = PRODUCT_DEFINITION_FORMATION_WITH_SPECIFIED_SOURCE ( 'ANY', '', #289, .NOT_KNOWN. ) ;
#44 = ORIENTED_EDGE ( 'NONE', *, *, #172, .T. ) ;
#45 = DIRECTION ( 'NONE',  ( 3.491481338843133355E-15, -1.224646799147353454E-16, 1.000000000000000000 ) ) ;
#46 = DIRECTION ( 'NONE',  ( -3.491481338843133355E-15, 1.224646799147353454E-16, -1.000000000000000000 ) ) ;
#47 = CIRCLE ( 'NONE', #264, 1.499999999999996003 ) ;
#48 = CARTESIAN_POINT ( 'NONE',  ( -5.490862111389292152E-31, 1.925935170972566507E-32, -1.572645412794511223E-16 ) ) ;
#49 = DIRECTION ( 'NONE',  ( -4.275831445896959482E-31, -1.000000000000000000, -1.224646799147353454E-16 ) ) ;
#50 = DIRECTION ( 'NONE',  ( 0.0000000000000000000, 1.000000000000000000, 0.0000000000000000000 ) ) ;
#51 = AXIS2_PLACEMENT_3D ( 'NONE', #105, #199, #147 ) ;
#52 =( NAMED_UNIT ( * ) PLANE_ANGLE_UNIT ( ) SI_UNIT ( $, .RADIAN. ) );
#53 = VERTEX_POINT ( 'NONE', #197 ) ;
#54 = APPLICATION_PROTOCOL_DEFINITION ( 'international standard', 'config_control_design', 1994, #247 ) ;
#55 = MANIFOLD_SOLID_BREP ( 'Corps-Déplacer/Copier1[2]', #300 ) ;
#56 = AXIS2_PLACEMENT_3D ( 'NONE', #120, #215, #3 ) ;
#57 = APPROVAL_ROLE ( '' ) ;
#58 = ADVANCED_FACE ( 'NONE', ( #275, #1 ), #166, .T. ) ;
#59 = APPROVAL_ROLE ( '' ) ;
#60 = ORIENTED_EDGE ( 'NONE', *, *, #219, .F. ) ;
#61 = DATE_AND_TIME ( #274, #237 ) ;
#62 = ORIENTED_EDGE ( 'NONE', *, *, #235, .T. ) ;
#63 = APPLICATION_CONTEXT ( 'configuration controlled 3d designs of mechanical parts and assemblies' ) ;
#64 = CC_DESIGN_PERSON_AND_ORGANIZATION_ASSIGNMENT ( #151, #134, ( #201 ) ) ;
#65 = CARTESIAN_POINT ( 'NONE',  ( 2.129803616694311221E-13, -7.470345474798856659E-15, 61.00000000000000000 ) ) ;
#66 = EDGE_LOOP ( 'NONE', ( #60 ) ) ;
#67 = CC_DESIGN_APPROVAL ( #41, ( #201 ) ) ;
#68 = DIRECTION ( 'NONE',  ( 0.0000000000000000000, 1.000000000000000000, 0.0000000000000000000 ) ) ;
#69 = ADVANCED_FACE ( 'NONE', ( #165 ), #72, .F. ) ;
#70 = CARTESIAN_POINT ( 'NONE',  ( 9.334328656934240837E-14, -3.274041761223206859E-15, 26.73457982744675121 ) ) ;
#71 = DIRECTION ( 'NONE',  ( 0.0000000000000000000, 1.000000000000000000, 0.0000000000000000000 ) ) ;
#72 = PLANE ( 'NONE',  #281 ) ;
#73 = EDGE_CURVE ( 'NONE', #32, #32, #89, .T. ) ;
#74 = CARTESIAN_POINT ( 'NONE',  ( 0.0000000000000000000, 0.0000000000000000000, 0.0000000000000000000 ) ) ;
#75 =( GEOMETRIC_REPRESENTATION_CONTEXT ( 3 ) GLOBAL_UNCERTAINTY_ASSIGNED_CONTEXT ( ( #87 ) ) GLOBAL_UNIT_ASSIGNED_CONTEXT ( ( #170, #52, #196 ) ) REPRESENTATION_CONTEXT ( 'NONE', 'WORKASPACE' ) );
#76 = FACE_BOUND ( 'NONE', #18, .T. ) ;
#77 = VERTEX_POINT ( 'NONE', #103 ) ;
#78 = DIRECTION ( 'NONE',  ( 1.000000000000000000, 0.0000000000000000000, 0.0000000000000000000 ) ) ;
#79 = CIRCLE ( 'NONE', #25, 1.255384493975580940 ) ;
#80 = CC_DESIGN_SECURITY_CLASSIFICATION ( #201, ( #43 ) ) ;
#81 = ADVANCED_FACE ( 'NONE', ( #138, #239 ), #218, .T. ) ;
#82 = COORDINATED_UNIVERSAL_TIME_OFFSET ( 1, 0, .AHEAD. ) ;
#83 = CARTESIAN_POINT ( 'NONE',  ( 3.491481338843133355E-14, 1.071203424766230392E-32, 10.00000000000000000 ) ) ;
#84 = APPROVAL_DATE_TIME ( #205, #41 ) ;
#85 = DIRECTION ( 'NONE',  ( 3.491481338843133355E-15, -1.224646799147353454E-16, 1.000000000000000000 ) ) ;
#86 = CALENDAR_DATE ( 2021, 30, 11 ) ;
#87 = UNCERTAINTY_MEASURE_WITH_UNIT (LENGTH_MEASURE( 1.000000000000000082E-05 ), #170, 'distance_accuracy_value', 'NONE');
#88 = EDGE_LOOP ( 'NONE', ( #279 ) ) ;
#89 = CIRCLE ( 'NONE', #198, 1.284162432702594669 ) ;
#90 = PERSON_AND_ORGANIZATION_ROLE ( 'design_supplier' ) ;
#91 = DIRECTION ( 'NONE',  ( -3.491481338843133355E-15, 1.224646799147353454E-16, -1.000000000000000000 ) ) ;
#92 = EDGE_LOOP ( 'NONE', ( #188 ) ) ;
#93 = CARTESIAN_POINT ( 'NONE',  ( 2.129803616694311221E-13, 8.998558695971049855E-33, 61.00000000000000000 ) ) ;
#94 = CC_DESIGN_PERSON_AND_ORGANIZATION_ASSIGNMENT ( #251, #254, ( #43 ) ) ;
#95 = CC_DESIGN_APPROVAL ( #265, ( #148 ) ) ;
#96 = CARTESIAN_POINT ( 'NONE',  ( 8.728703347107827472E-16, -3.061616997868381785E-17, 0.2499999999999998335 ) ) ;
#97 = DIRECTION ( 'NONE',  ( 4.275831445896960358E-31, 1.000000000000000000, 1.224646799147353454E-16 ) ) ;
#98 = CC_DESIGN_DATE_AND_TIME_ASSIGNMENT ( #177, #110, ( #201 ) ) ;
#99 = CYLINDRICAL_SURFACE ( 'NONE', #189, 1.224999999999999201 ) ;
#100 = ORGANIZATION ( 'UNSPECIFIED', 'UNSPECIFIED', '' ) ;
#101 = CARTESIAN_POINT ( 'NONE',  ( 2.119329172677781757E-13, -7.433606070824434221E-15, 60.69999999999999574 ) ) ;
#102 = VERTEX_POINT ( 'NONE', #244 ) ;
#103 = CARTESIAN_POINT ( 'NONE',  ( 8.728703347107833388E-14, 1.224999999999996980, 25.00000000000000000 ) ) ;
#104 = AXIS2_PLACEMENT_3D ( 'NONE', #106, #292, #11 ) ;
#105 = CARTESIAN_POINT ( 'NONE',  ( 2.129803616694311221E-13, -7.470345474798856659E-15, 61.00000000000000000 ) ) ;
#106 = CARTESIAN_POINT ( 'NONE',  ( 8.728703347107827472E-16, -3.061616997868381785E-17, 0.2499999999999998335 ) ) ;
#107 = CONICAL_SURFACE ( 'NONE', #51, 1.200000000000001510, 0.7853981633974453924 ) ;
#108 = DATE_AND_TIME ( #294, #250 ) ;
#109 = ORIENTED_EDGE ( 'NONE', *, *, #14, .T. ) ;
#110 = DATE_TIME_ROLE ( 'classification_date' ) ;
#111 = EDGE_LOOP ( 'NONE', ( #109 ) ) ;
#112 = COORDINATED_UNIVERSAL_TIME_OFFSET ( 1, 0, .AHEAD. ) ;
#113 = ORIENTED_EDGE ( 'NONE', *, *, #208, .T. ) ;
#114 = AXIS2_PLACEMENT_3D ( 'NONE', #101, #195, #286 ) ;
#115 = ORIENTED_EDGE ( 'NONE', *, *, #14, .F. ) ;
#116 = ADVANCED_FACE ( 'NONE', ( #7 ), #123, .F. ) ;
#117 = FACE_OUTER_BOUND ( 'NONE', #88, .T. ) ;
#118 = DIRECTION ( 'NONE',  ( -4.275831445896959482E-31, -1.000000000000000000, -1.224646799147353454E-16 ) ) ;
#119 = AXIS2_PLACEMENT_3D ( 'NONE', #259, #257, #118 ) ;
#120 = CARTESIAN_POINT ( 'NONE',  ( 3.491481338843133355E-14, -1.224646799147353454E-15, 10.00000000000000000 ) ) ;
#121 = CC_DESIGN_PERSON_AND_ORGANIZATION_ASSIGNMENT ( #13, #40, ( #148 ) ) ;
#122 = DIRECTION ( 'NONE',  ( 3.491481338843133355E-15, -1.224646799147353454E-16, 1.000000000000000000 ) ) ;
#123 = PLANE ( 'NONE',  #291 ) ;
#124 = APPROVAL_PERSON_ORGANIZATION ( #230, #29, #59 ) ;
#125 = CARTESIAN_POINT ( 'NONE',  ( 8.849961221477469775E-14, 1.255384493975577831, 25.34729635533384595 ) ) ;
#126 = ADVANCED_FACE ( 'NONE', ( #190, #5 ), #99, .T. ) ;
#127 = CARTESIAN_POINT ( 'NONE',  ( 0.0000000000000000000, 0.0000000000000000000, 0.0000000000000000000 ) ) ;
#128 = CIRCLE ( 'NONE', #193, 1.428499999999998771 ) ;
#129 = VERTEX_POINT ( 'NONE', #173 ) ;
#130 = APPLICATION_PROTOCOL_DEFINITION ( 'international standard', 'config_control_design', 1994, #63 ) ;
#131 = EDGE_LOOP ( 'NONE', ( #158 ) ) ;
#132 = CALENDAR_DATE ( 2021, 30, 11 ) ;
#133 = EDGE_LOOP ( 'NONE', ( #234 ) ) ;
#134 = PERSON_AND_ORGANIZATION_ROLE ( 'classification_officer' ) ;
#135 = ORIENTED_EDGE ( 'NONE', *, *, #73, .T. ) ;
#136 = APPROVAL_PERSON_ORGANIZATION ( #226, #265, #57 ) ;
#137 = EDGE_LOOP ( 'NONE', ( #252 ) ) ;
#138 = FACE_OUTER_BOUND ( 'NONE', #273, .T. ) ;
#139 = CARTESIAN_POINT ( 'NONE',  ( 0.0000000000000000000, 0.0000000000000000000, 0.0000000000000000000 ) ) ;
#140 = CIRCLE ( 'NONE', #228, 1.428500000000000103 ) ;
#141 = DIRECTION ( 'NONE',  ( 4.275831445896959482E-31, 1.000000000000000000, 1.224646799147353454E-16 ) ) ;
#142 = DIRECTION ( 'NONE',  ( -3.491481338843133355E-15, 1.224646799147353454E-16, -1.000000000000000000 ) ) ;
#143 = CARTESIAN_POINT ( 'NONE',  ( 8.849961221477469775E-14, -3.104148534859897544E-15, 25.34729635533384595 ) ) ;
#144 = AXIS2_PLACEMENT_3D ( 'NONE', #168, #26, #220 ) ;
#145 = ADVANCED_FACE ( 'NONE', ( #192, #285 ), #214, .F. ) ;
#146 = PERSON_AND_ORGANIZATION ( #161, #100 ) ;
#147 = DIRECTION ( 'NONE',  ( 0.0000000000000000000, 1.000000000000000000, 0.0000000000000000000 ) ) ;
#148 = PRODUCT_DEFINITION ( 'UNKNOWN', '', #43, #206 ) ;
#149 = AXIS2_PLACEMENT_3D ( 'NONE', #65, #42, #204 ) ;
#150 = COORDINATED_UNIVERSAL_TIME_OFFSET ( 1, 0, .AHEAD. ) ;
#151 = PERSON_AND_ORGANIZATION ( #161, #100 ) ;
#152 = EDGE_LOOP ( 'NONE', ( #44 ) ) ;
#153 = EDGE_CURVE ( 'NONE', #9, #9, #47, .T. ) ;
#154 = CONICAL_SURFACE ( 'NONE', #175, 1.224999999999998535, 0.5235987755982930425 ) ;
#155 = COORDINATED_UNIVERSAL_TIME_OFFSET ( 1, 0, .AHEAD. ) ;
#156 = EDGE_LOOP ( 'NONE', ( #231 ) ) ;
#157 = MANIFOLD_SOLID_BREP ( 'Corps-Déplacer/Copier1[1]', #268 ) ;
#158 = ORIENTED_EDGE ( 'NONE', *, *, #269, .F. ) ;
#159 = APPROVAL_STATUS ( 'not_yet_approved' ) ;
#160 = ORIENTED_EDGE ( 'NONE', *, *, #185, .F. ) ;
#161 = PERSON ( 'UNSPECIFIED', 'UNSPECIFIED', 'UNSPECIFIED', ('UNSPECIFIED'), ('UNSPECIFIED'), ('UNSPECIFIED') ) ;
#162 = AXIS2_PLACEMENT_3D ( 'NONE', #282, #262, #50 ) ;
#163 = EDGE_LOOP ( 'NONE', ( #22 ) ) ;
#164 = DIRECTION ( 'NONE',  ( -3.491481338843133355E-15, 1.224646799147353454E-16, -1.000000000000000000 ) ) ;
#165 = FACE_OUTER_BOUND ( 'NONE', #39, .T. ) ;
#166 = CYLINDRICAL_SURFACE ( 'NONE', #19, 1.499999999999998668 ) ;
#167 = APPROVAL_PERSON_ORGANIZATION ( #21, #41, #38 ) ;
#168 = CARTESIAN_POINT ( 'NONE',  ( 8.728703347107833388E-14, -3.035766082959412415E-15, 25.00000000000000000 ) ) ;
#169 = PLANE ( 'NONE',  #119 ) ;
#170 =( LENGTH_UNIT ( ) NAMED_UNIT ( * ) SI_UNIT ( .MILLI., .METRE. ) );
#171 = FACE_OUTER_BOUND ( 'NONE', #92, .T. ) ;
#172 = EDGE_CURVE ( 'NONE', #53, #53, #194, .T. ) ;
#173 = CARTESIAN_POINT ( 'NONE',  ( 3.614546398369628854E-14, 1.224999999999997202, 10.35247233934027378 ) ) ;
#174 = CARTESIAN_POINT ( 'NONE',  ( 3.491481338843133355E-14, -1.224646799147353454E-15, 10.00000000000000000 ) ) ;
#175 = AXIS2_PLACEMENT_3D ( 'NONE', #37, #91, #186 ) ;
#176 = MECHANICAL_CONTEXT ( 'NONE', #247, 'mechanical' ) ;
#177 = DATE_AND_TIME ( #86, #301 ) ;
#178 = DIRECTION ( 'NONE',  ( 0.0000000000000000000, 1.000000000000000000, 0.0000000000000000000 ) ) ;
#179 = ADVANCED_FACE ( 'NONE', ( #191 ), #169, .F. ) ;
#180 = APPROVAL_DATE_TIME ( #108, #265 ) ;
#181 = DIRECTION ( 'NONE',  ( -4.275831445896959482E-31, -1.000000000000000000, -1.224646799147353454E-16 ) ) ;
#182 = AXIS2_PLACEMENT_3D ( 'NONE', #127, #225, #78 ) ;
#183 = SHAPE_DEFINITION_REPRESENTATION ( #223, #232 ) ;
#184 = EDGE_LOOP ( 'NONE', ( #115 ) ) ;
#185 = EDGE_CURVE ( 'NONE', #129, #129, #246, .T. ) ;
#186 = DIRECTION ( 'NONE',  ( 0.0000000000000000000, 1.000000000000000000, 0.0000000000000000000 ) ) ;
#187 = APPROVAL_STATUS ( 'not_yet_approved' ) ;
#188 = ORIENTED_EDGE ( 'NONE', *, *, #172, .F. ) ;
#189 = AXIS2_PLACEMENT_3D ( 'NONE', #139, #283, #236 ) ;
#190 = FACE_OUTER_BOUND ( 'NONE', #207, .T. ) ;
#191 = FACE_OUTER_BOUND ( 'NONE', #303, .T. ) ;
#192 = FACE_OUTER_BOUND ( 'NONE', #184, .T. ) ;
#193 = AXIS2_PLACEMENT_3D ( 'NONE', #96, #46, #238 ) ;
#194 = CIRCLE ( 'NONE', #114, 1.500000000000001332 ) ;
#195 = DIRECTION ( 'NONE',  ( -3.491481338843133355E-15, 1.224646799147353454E-16, -1.000000000000000000 ) ) ;
#196 =( NAMED_UNIT ( * ) SI_UNIT ( $, .STERADIAN. ) SOLID_ANGLE_UNIT ( ) );
#197 = CARTESIAN_POINT ( 'NONE',  ( 2.119329172677781757E-13, 1.499999999999994005, 60.69999999999999574 ) ) ;
#198 = AXIS2_PLACEMENT_3D ( 'NONE', #48, #217, #241 ) ;
#199 = DIRECTION ( 'NONE',  ( -3.491481338843133355E-15, 1.224646799147353454E-16, -1.000000000000000000 ) ) ;
#200 = VERTEX_POINT ( 'NONE', #125 ) ;
#201 = SECURITY_CLASSIFICATION ( '', '', #17 ) ;
#202 = CALENDAR_DATE ( 2021, 30, 11 ) ;
#203 = DIRECTION ( 'NONE',  ( -3.491481338843133355E-15, 1.224646799147353454E-16, -1.000000000000000000 ) ) ;
#204 = DIRECTION ( 'NONE',  ( 0.0000000000000000000, 1.000000000000000000, 0.0000000000000000000 ) ) ;
#205 = DATE_AND_TIME ( #132, #209 ) ;
#206 = DESIGN_CONTEXT ( 'detailed design', #63, 'design' ) ;
#207 = EDGE_LOOP ( 'NONE', ( #160 ) ) ;
#208 = EDGE_CURVE ( 'NONE', #200, #200, #79, .T. ) ;
#209 = LOCAL_TIME ( 10, 57, 3.000000000000000000, #112 ) ;
#210 = DATE_TIME_ROLE ( 'creation_date' ) ;
#211 = ORIENTED_EDGE ( 'NONE', *, *, #235, .F. ) ;
#212 = ORIENTED_EDGE ( 'NONE', *, *, #269, .T. ) ;
#213 = FACE_BOUND ( 'NONE', #156, .T. ) ;
#214 = TOROIDAL_SURFACE ( 'NONE', #144, 3.225000000000000089, 2.000000000000000000 ) ;
#215 = DIRECTION ( 'NONE',  ( -3.491481338843133355E-15, 1.224646799147353454E-16, -1.000000000000000000 ) ) ;
#216 = ADVANCED_FACE ( 'NONE', ( #213, #117 ), #30, .T. ) ;
#217 = DIRECTION ( 'NONE',  ( -3.491481338843133355E-15, 1.224646799147353454E-16, -1.000000000000000000 ) ) ;
#218 = CYLINDRICAL_SURFACE ( 'NONE', #258, 1.428499999999999437 ) ;
#219 = EDGE_CURVE ( 'NONE', #102, #102, #255, .T. ) ;
#220 = DIRECTION ( 'NONE',  ( 4.275831445896959482E-31, 1.000000000000000000, 1.224646799147353454E-16 ) ) ;
#221 = AXIS2_PLACEMENT_3D ( 'NONE', #297, #203, #178 ) ;
#222 = VERTEX_POINT ( 'NONE', #287 ) ;
#223 = PRODUCT_DEFINITION_SHAPE ( 'NONE', 'NONE',  #148 ) ;
#224 = CARTESIAN_POINT ( 'NONE',  ( 8.728703347107833388E-16, 1.428499999999998771, 0.2500000000000000000 ) ) ;
#225 = DIRECTION ( 'NONE',  ( 0.0000000000000000000, 0.0000000000000000000, 1.000000000000000000 ) ) ;
#226 = PERSON_AND_ORGANIZATION ( #161, #100 ) ;
#227 = CC_DESIGN_PERSON_AND_ORGANIZATION_ASSIGNMENT ( #296, #90, ( #43 ) ) ;
#228 = AXIS2_PLACEMENT_3D ( 'NONE', #174, #267, #290 ) ;
#229 = PLANE ( 'NONE',  #35 ) ;
#230 = PERSON_AND_ORGANIZATION ( #161, #100 ) ;
#231 = ORIENTED_EDGE ( 'NONE', *, *, #208, .F. ) ;
#232 = ADVANCED_BREP_SHAPE_REPRESENTATION ( '200132', ( #157, #55, #182 ), #75 ) ;
#233 = EDGE_LOOP ( 'NONE', ( #253 ) ) ;
#234 = ORIENTED_EDGE ( 'NONE', *, *, #153, .F. ) ;
#235 = EDGE_CURVE ( 'NONE', #266, #266, #128, .T. ) ;
#236 = DIRECTION ( 'NONE',  ( 4.275831445896958607E-31, 1.000000000000000000, 1.224646799147353454E-16 ) ) ;
#237 = LOCAL_TIME ( 10, 57, 3.000000000000000000, #82 ) ;
#238 = DIRECTION ( 'NONE',  ( 4.044655115968996960E-31, 1.000000000000000000, 1.138469204570009062E-16 ) ) ;
#239 = FACE_OUTER_BOUND ( 'NONE', #137, .T. ) ;
#240 = PRODUCT_RELATED_PRODUCT_CATEGORY ( 'detail', '', ( #289 ) ) ;
#241 = DIRECTION ( 'NONE',  ( 4.275831445896959482E-31, 1.000000000000000000, 1.224646799147353454E-16 ) ) ;
#242 = DIRECTION ( 'NONE',  ( -3.491481338843133355E-15, 1.224646799147353454E-16, -1.000000000000000000 ) ) ;
#243 = CC_DESIGN_APPROVAL ( #29, ( #43 ) ) ;
#244 = CARTESIAN_POINT ( 'NONE',  ( 3.491481338843133355E-14, 1.428499999999998771, 10.00000000000000000 ) ) ;
#245 = CIRCLE ( 'NONE', #149, 1.200000000000001510 ) ;
#246 = CIRCLE ( 'NONE', #162, 1.224999999999998535 ) ;
#247 = APPLICATION_CONTEXT ( 'configuration controlled 3d designs of mechanical parts and assemblies' ) ;
#248 = ADVANCED_FACE ( 'NONE', ( #171, #31 ), #107, .T. ) ;
#249 = FACE_OUTER_BOUND ( 'NONE', #131, .T. ) ;
#250 = LOCAL_TIME ( 10, 57, 3.000000000000000000, #150 ) ;
#251 = PERSON_AND_ORGANIZATION ( #161, #100 ) ;
#252 = ORIENTED_EDGE ( 'NONE', *, *, #219, .T. ) ;
#253 = ORIENTED_EDGE ( 'NONE', *, *, #10, .T. ) ;
#254 = PERSON_AND_ORGANIZATION_ROLE ( 'creator' ) ;
#255 = CIRCLE ( 'NONE', #56, 1.428500000000000103 ) ;
#256 = CARTESIAN_POINT ( 'NONE',  ( 9.334328656934240837E-14, -3.274041761223206859E-15, 26.73457982744675121 ) ) ;
#257 = DIRECTION ( 'NONE',  ( 3.491481338843133355E-15, -1.224646799147353454E-16, 1.000000000000000000 ) ) ;
#258 = AXIS2_PLACEMENT_3D ( 'NONE', #28, #261, #4 ) ;
#259 = CARTESIAN_POINT ( 'NONE',  ( 3.491481338843133355E-14, 1.071203424766230392E-32, 10.00000000000000000 ) ) ;
#260 = ADVANCED_FACE ( 'NONE', ( #76, #293 ), #2, .T. ) ;
#261 = DIRECTION ( 'NONE',  ( -3.491481338843133355E-15, 1.224646799147353454E-16, -1.000000000000000000 ) ) ;
#262 = DIRECTION ( 'NONE',  ( -3.491481338843133355E-15, 1.224646799147353454E-16, -1.000000000000000000 ) ) ;
#263 = VERTEX_POINT ( 'NONE', #34 ) ;
#264 = AXIS2_PLACEMENT_3D ( 'NONE', #70, #284, #71 ) ;
#265 = APPROVAL ( #271, 'UNSPECIFIED' ) ;
#266 = VERTEX_POINT ( 'NONE', #224 ) ;
#267 = DIRECTION ( 'NONE',  ( -3.491481338843133355E-15, 1.224646799147353454E-16, -1.000000000000000000 ) ) ;
#268 = CLOSED_SHELL ( 'NONE', ( #179, #8, #126, #145, #216, #58, #248, #116 ) ) ;
#269 = EDGE_CURVE ( 'NONE', #263, #263, #140, .T. ) ;
#270 = AXIS2_PLACEMENT_3D ( 'NONE', #256, #45, #24 ) ;
#271 = APPROVAL_STATUS ( 'not_yet_approved' ) ;
#272 = COORDINATED_UNIVERSAL_TIME_OFFSET ( 1, 0, .AHEAD. ) ;
#273 = EDGE_LOOP ( 'NONE', ( #211 ) ) ;
#274 = CALENDAR_DATE ( 2021, 30, 11 ) ;
#275 = FACE_OUTER_BOUND ( 'NONE', #133, .T. ) ;
#276 = CIRCLE ( 'NONE', #221, 1.224999999999999867 ) ;
#277 = EDGE_LOOP ( 'NONE', ( #62 ) ) ;
#278 = APPROVAL_DATE_TIME ( #61, #29 ) ;
#279 = ORIENTED_EDGE ( 'NONE', *, *, #153, .T. ) ;
#280 = CC_DESIGN_DATE_AND_TIME_ASSIGNMENT ( #298, #210, ( #148 ) ) ;
#281 = AXIS2_PLACEMENT_3D ( 'NONE', #27, #122, #49 ) ;
#282 = CARTESIAN_POINT ( 'NONE',  ( 3.614546398369628854E-14, -1.267812211363458297E-15, 10.35247233934027378 ) ) ;
#283 = DIRECTION ( 'NONE',  ( -3.491481338843133355E-15, 1.224646799147353454E-16, -1.000000000000000000 ) ) ;
#284 = DIRECTION ( 'NONE',  ( -3.491481338843133355E-15, 1.224646799147353454E-16, -1.000000000000000000 ) ) ;
#285 = FACE_OUTER_BOUND ( 'NONE', #16, .T. ) ;
#286 = DIRECTION ( 'NONE',  ( 0.0000000000000000000, 1.000000000000000000, 0.0000000000000000000 ) ) ;
#287 = CARTESIAN_POINT ( 'NONE',  ( 2.129803616694311221E-13, 1.199999999999993960, 61.00000000000000000 ) ) ;
#288 = CC_DESIGN_PERSON_AND_ORGANIZATION_ASSIGNMENT ( #146, #36, ( #289 ) ) ;
#289 = PRODUCT ( '200132', '200132', '', ( #176 ) ) ;
#290 = DIRECTION ( 'NONE',  ( 0.0000000000000000000, 1.000000000000000000, 0.0000000000000000000 ) ) ;
#291 = AXIS2_PLACEMENT_3D ( 'NONE', #93, #164, #141 ) ;
#292 = DIRECTION ( 'NONE',  ( 3.491481338843133355E-15, -1.224646799147353454E-16, 1.000000000000000000 ) ) ;
#293 = FACE_OUTER_BOUND ( 'NONE', #277, .T. ) ;
#294 = CALENDAR_DATE ( 2021, 30, 11 ) ;
#295 = FACE_OUTER_BOUND ( 'NONE', #66, .T. ) ;
#296 = PERSON_AND_ORGANIZATION ( #161, #100 ) ;
#297 = CARTESIAN_POINT ( 'NONE',  ( 8.728703347107833388E-14, -3.061616997868383831E-15, 25.00000000000000000 ) ) ;
#298 = DATE_AND_TIME ( #202, #6 ) ;
#299 = EDGE_LOOP ( 'NONE', ( #23 ) ) ;
#300 = CLOSED_SHELL ( 'NONE', ( #69, #260, #81, #20 ) ) ;
#301 = LOCAL_TIME ( 10, 57, 3.000000000000000000, #272 ) ;
#302 = FACE_BOUND ( 'NONE', #163, .T. ) ;
#303 = EDGE_LOOP ( 'NONE', ( #212 ) ) ;
ENDSEC;
END-ISO-10303-21;
