ISO-10303-21;
HEADER;
FILE_DESCRIPTION (( 'STEP AP203' ),
    '1' );
FILE_NAME ('200131.step',
    '2021-11-30T06:44:54',
    ( '' ),
    ( '' ),
    'SwSTEP 2.0',
    'SolidWorks 2019',
    '' );
FILE_SCHEMA (( 'CONFIG_CONTROL_DESIGN' ));
ENDSEC;

DATA;
#1 = AXIS2_PLACEMENT_3D ( 'NONE', #115, #214, #184 ) ;
#2 = ORIENTED_EDGE ( 'NONE', *, *, #136, .F. ) ;
#3 = ORIENTED_EDGE ( 'NONE', *, *, #160, .F. ) ;
#4 = CC_DESIGN_APPROVAL ( #266, ( #176 ) ) ;
#5 = CARTESIAN_POINT ( 'NONE',  ( 0.0000000000000000000, 0.0000000000000000000, 0.0000000000000000000 ) ) ;
#6 = ADVANCED_FACE ( 'NONE', ( #212, #253 ), #161, .T. ) ;
#7 = DIRECTION ( 'NONE',  ( -3.491481338843133355E-15, 1.224646799147353207E-16, -1.000000000000000000 ) ) ;
#8 = DIRECTION ( 'NONE',  ( 0.0000000000000000000, 1.000000000000000000, 0.0000000000000000000 ) ) ;
#9 = FACE_OUTER_BOUND ( 'NONE', #152, .T. ) ;
#10 = DIRECTION ( 'NONE',  ( 3.491481338843133355E-15, -1.224646799147353207E-16, 1.000000000000000000 ) ) ;
#11 = CARTESIAN_POINT ( 'NONE',  ( 2.793185071074506684E-14, 8.649864546502208659E-33, 8.000000000000000000 ) ) ;
#12 = DIRECTION ( 'NONE',  ( -4.275831445896958607E-31, -1.000000000000000000, -1.224646799147353207E-16 ) ) ;
#13 = CIRCLE ( 'NONE', #168, 1.030384493975581517 ) ;
#14 = ORIENTED_EDGE ( 'NONE', *, *, #48, .F. ) ;
#15 = PERSON_AND_ORGANIZATION ( #22, #32 ) ;
#16 = DATE_TIME_ROLE ( 'classification_date' ) ;
#17 = CARTESIAN_POINT ( 'NONE',  ( 8.728703347107835360E-16, 1.153499999999993753, 0.2500000000000000555 ) ) ;
#18 = EDGE_LOOP ( 'NONE', ( #204 ) ) ;
#19 = VERTEX_POINT ( 'NONE', #62 ) ;
#20 = ADVANCED_FACE ( 'NONE', ( #113, #133 ), #172, .F. ) ;
#21 = ORIENTED_EDGE ( 'NONE', *, *, #207, .T. ) ;
#22 = PERSON ( 'UNSPECIFIED', 'UNSPECIFIED', 'UNSPECIFIED', ('UNSPECIFIED'), ('UNSPECIFIED'), ('UNSPECIFIED') ) ;
#23 = CARTESIAN_POINT ( 'NONE',  ( 1.735266225405037467E-13, -6.086494591762345225E-15, 49.70000000000000284 ) ) ;
#24 = VERTEX_POINT ( 'NONE', #274 ) ;
#25 = ORIENTED_EDGE ( 'NONE', *, *, #30, .F. ) ;
#26 = PRODUCT_RELATED_PRODUCT_CATEGORY ( 'detail', '', ( #35 ) ) ;
#27 = DIRECTION ( 'NONE',  ( 0.0000000000000000000, 1.000000000000000000, 0.0000000000000000000 ) ) ;
#28 = DIRECTION ( 'NONE',  ( 5.008920531566310151E-31, 1.000000000000000000, 1.409885789968153821E-16 ) ) ;
#29 = CARTESIAN_POINT ( 'NONE',  ( 7.335818149155665618E-14, -2.573058637187857101E-15, 21.01061823686078966 ) ) ;
#30 = EDGE_CURVE ( 'NONE', #111, #111, #46, .T. ) ;
#31 = CARTESIAN_POINT ( 'NONE',  ( 1.745740669421566678E-13, 8.998558695971067645E-33, 50.00000000000000000 ) ) ;
#32 = ORGANIZATION ( 'UNSPECIFIED', 'UNSPECIFIED', '' ) ;
#33 = CARTESIAN_POINT ( 'NONE',  ( 1.745740669421566678E-13, -6.123233995736766085E-15, 50.00000000000000000 ) ) ;
#34 = DIRECTION ( 'NONE',  ( 4.275831445896958607E-31, 1.000000000000000000, 1.224646799147353454E-16 ) ) ;
#35 = PRODUCT ( '200131', '200131', '', ( #296 ) ) ;
#36 = SECURITY_CLASSIFICATION_LEVEL ( 'unclassified' ) ;
#37 = CARTESIAN_POINT ( 'NONE',  ( 0.0000000000000000000, 0.0000000000000000000, 0.0000000000000000000 ) ) ;
#38 = AXIS2_PLACEMENT_3D ( 'NONE', #53, #291, #28 ) ;
#39 = PERSON_AND_ORGANIZATION_ROLE ( 'creator' ) ;
#40 = PERSON_AND_ORGANIZATION_ROLE ( 'classification_officer' ) ;
#41 = VERTEX_POINT ( 'NONE', #17 ) ;
#42 = ORIENTED_EDGE ( 'NONE', *, *, #160, .T. ) ;
#43 = DIRECTION ( 'NONE',  ( 4.275831445896957731E-31, 1.000000000000000000, 1.224646799147353207E-16 ) ) ;
#44 = AXIS2_PLACEMENT_3D ( 'NONE', #187, #69, #284 ) ;
#45 = APPLICATION_PROTOCOL_DEFINITION ( 'international standard', 'config_control_design', 1994, #145 ) ;
#46 = CIRCLE ( 'NONE', #262, 1.500000000000001554 ) ;
#47 = ORIENTED_EDGE ( 'NONE', *, *, #301, .T. ) ;
#48 = EDGE_CURVE ( 'NONE', #271, #271, #13, .T. ) ;
#49 = EDGE_LOOP ( 'NONE', ( #47 ) ) ;
#50 = ORIENTED_EDGE ( 'NONE', *, *, #192, .T. ) ;
#51 = AXIS2_PLACEMENT_3D ( 'NONE', #55, #144, #170 ) ;
#52 = DIRECTION ( 'NONE',  ( -3.491481338843133355E-15, 1.224646799147353207E-16, -1.000000000000000000 ) ) ;
#53 = CARTESIAN_POINT ( 'NONE',  ( 8.728703347107829444E-16, -3.061616997868381785E-17, 0.2499999999999998890 ) ) ;
#54 = DIRECTION ( 'NONE',  ( 0.0000000000000000000, 1.000000000000000000, 0.0000000000000000000 ) ) ;
#55 = CARTESIAN_POINT ( 'NONE',  ( 2.886013015238223984E-14, -1.012277099146736966E-15, 8.265869798961821502 ) ) ;
#56 = DIRECTION ( 'NONE',  ( 4.275831445896958607E-31, 1.000000000000000000, 1.224646799147353207E-16 ) ) ;
#57 = CARTESIAN_POINT ( 'NONE',  ( 2.793185071074506684E-14, 1.153499999999993753, 8.000000000000000000 ) ) ;
#58 = COORDINATED_UNIVERSAL_TIME_OFFSET ( 1, 0, .AHEAD. ) ;
#59 =( NAMED_UNIT ( * ) PLANE_ANGLE_UNIT ( ) SI_UNIT ( $, .RADIAN. ) );
#60 = CALENDAR_DATE ( 2021, 30, 11 ) ;
#61 = APPROVAL_STATUS ( 'not_yet_approved' ) ;
#62 = CARTESIAN_POINT ( 'NONE',  ( 2.886013015238223984E-14, 0.9999999999999976685, 8.265869798961821502 ) ) ;
#63 = EDGE_LOOP ( 'NONE', ( #201 ) ) ;
#64 = APPROVAL_STATUS ( 'not_yet_approved' ) ;
#65 = CONICAL_SURFACE ( 'NONE', #268, 0.9999999999999986677, 0.5235987755982913772 ) ;
#66 = APPROVAL_DATE_TIME ( #180, #266 ) ;
#67 = EDGE_LOOP ( 'NONE', ( #110 ) ) ;
#68 = CIRCLE ( 'NONE', #239, 1.499999999999996669 ) ;
#69 = DIRECTION ( 'NONE',  ( -3.491481338843133355E-15, 1.224646799147353207E-16, -1.000000000000000000 ) ) ;
#70 = EDGE_LOOP ( 'NONE', ( #210 ) ) ;
#71 = EDGE_LOOP ( 'NONE', ( #2 ) ) ;
#72 = AXIS2_PLACEMENT_3D ( 'NONE', #240, #269, #287 ) ;
#73 = CARTESIAN_POINT ( 'NONE',  ( 8.728703347107829444E-16, -3.061616997868381785E-17, 0.2499999999999998890 ) ) ;
#74 = ADVANCED_FACE ( 'NONE', ( #236, #137 ), #166, .T. ) ;
#75 = CARTESIAN_POINT ( 'NONE',  ( 0.0000000000000000000, 0.0000000000000000000, 0.0000000000000000000 ) ) ;
#76 = DIRECTION ( 'NONE',  ( 0.0000000000000000000, 1.000000000000000000, 0.0000000000000000000 ) ) ;
#77 = PRODUCT_DEFINITION_SHAPE ( 'NONE', 'NONE',  #128 ) ;
#78 = APPROVAL ( #61, 'UNSPECIFIED' ) ;
#79 = CARTESIAN_POINT ( 'NONE',  ( -3.103872145075382553E-31, 1.088691795411018283E-32, -8.889843146358671443E-17 ) ) ;
#80 = CLOSED_SHELL ( 'NONE', ( #285, #281, #6, #20, #241, #195, #246, #263 ) ) ;
#81 = APPROVAL_DATE_TIME ( #87, #233 ) ;
#82 = CIRCLE ( 'NONE', #51, 0.9999999999999986677 ) ;
#83 = CIRCLE ( 'NONE', #72, 0.9999999999999995559 ) ;
#84 = EDGE_CURVE ( 'NONE', #206, #206, #153, .T. ) ;
#85 = SHAPE_DEFINITION_REPRESENTATION ( #77, #139 ) ;
#86 = CARTESIAN_POINT ( 'NONE',  ( -1.892735826383160481E-31, 1.009162432702589429, -5.421010862427522170E-17 ) ) ;
#87 = DATE_AND_TIME ( #252, #282 ) ;
#88 = CC_DESIGN_PERSON_AND_ORGANIZATION_ASSIGNMENT ( #251, #39, ( #128 ) ) ;
#89 = CALENDAR_DATE ( 2021, 30, 11 ) ;
#90 = APPROVAL_PERSON_ORGANIZATION ( #175, #233, #272 ) ;
#91 = APPROVAL_PERSON_ORGANIZATION ( #224, #78, #156 ) ;
#92 = EDGE_LOOP ( 'NONE', ( #14 ) ) ;
#93 = DIRECTION ( 'NONE',  ( 0.0000000000000000000, 1.000000000000000000, 0.0000000000000000000 ) ) ;
#94 = LOCAL_TIME ( 7, 44, 54.00000000000000000, #278 ) ;
#95 = DIRECTION ( 'NONE',  ( -3.491481338843133355E-15, 1.224646799147353207E-16, -1.000000000000000000 ) ) ;
#96 = CARTESIAN_POINT ( 'NONE',  ( 2.793185071074506684E-14, -9.797174393178825657E-16, 8.000000000000000000 ) ) ;
#97 = CC_DESIGN_PERSON_AND_ORGANIZATION_ASSIGNMENT ( #197, #40, ( #250 ) ) ;
#98 = FACE_OUTER_BOUND ( 'NONE', #283, .T. ) ;
#99 = FACE_BOUND ( 'NONE', #231, .T. ) ;
#100 = PLANE ( 'NONE',  #103 ) ;
#101 = DIRECTION ( 'NONE',  ( 0.0000000000000000000, 1.000000000000000000, 0.0000000000000000000 ) ) ;
#102 = DIRECTION ( 'NONE',  ( 0.0000000000000000000, -1.000000000000000000, 0.0000000000000000000 ) ) ;
#103 = AXIS2_PLACEMENT_3D ( 'NONE', #79, #173, #167 ) ;
#104 = DIRECTION ( 'NONE',  ( 1.000000000000000000, 0.0000000000000000000, 0.0000000000000000000 ) ) ;
#105 = CARTESIAN_POINT ( 'NONE',  ( 6.405924284287275164E-14, 1.030384493975579296, 18.34729635533384595 ) ) ;
#106 = CALENDAR_DATE ( 2021, 30, 11 ) ;
#107 = CIRCLE ( 'NONE', #277, 1.009162432702589429 ) ;
#108 = ORIENTED_EDGE ( 'NONE', *, *, #84, .T. ) ;
#109 = COORDINATED_UNIVERSAL_TIME_OFFSET ( 1, 0, .AHEAD. ) ;
#110 = ORIENTED_EDGE ( 'NONE', *, *, #30, .T. ) ;
#111 = VERTEX_POINT ( 'NONE', #248 ) ;
#112 = DIRECTION ( 'NONE',  ( 0.0000000000000000000, 1.000000000000000000, 0.0000000000000000000 ) ) ;
#113 = FACE_OUTER_BOUND ( 'NONE', #155, .T. ) ;
#114 = AXIS2_PLACEMENT_3D ( 'NONE', #11, #169, #12 ) ;
#115 = CARTESIAN_POINT ( 'NONE',  ( 0.0000000000000000000, 0.0000000000000000000, 0.0000000000000000000 ) ) ;
#116 = FACE_BOUND ( 'NONE', #238, .T. ) ;
#117 = FACE_BOUND ( 'NONE', #92, .T. ) ;
#118 = AXIS2_PLACEMENT_3D ( 'NONE', #96, #130, #112 ) ;
#119 = DIRECTION ( 'NONE',  ( -3.491481338843133355E-15, 1.224646799147353207E-16, -1.000000000000000000 ) ) ;
#120 = FACE_OUTER_BOUND ( 'NONE', #63, .T. ) ;
#121 = APPROVAL_DATE_TIME ( #199, #78 ) ;
#122 = CARTESIAN_POINT ( 'NONE',  ( 7.335818149155665618E-14, -2.573058637187857101E-15, 21.01061823686078966 ) ) ;
#123 = MANIFOLD_SOLID_BREP ( 'Corps-Déplacer/Copier1[1]', #80 ) ;
#124 = COORDINATED_UNIVERSAL_TIME_OFFSET ( 1, 0, .AHEAD. ) ;
#125 = DIRECTION ( 'NONE',  ( 0.0000000000000000000, 0.0000000000000000000, 1.000000000000000000 ) ) ;
#126 = AXIS2_PLACEMENT_3D ( 'NONE', #73, #215, #247 ) ;
#127 = LOCAL_TIME ( 7, 44, 54.00000000000000000, #58 ) ;
#128 = PRODUCT_DEFINITION ( 'UNKNOWN', '', #176, #140 ) ;
#129 = CARTESIAN_POINT ( 'NONE',  ( 1.745740669421566678E-13, 1.199999999999995515, 50.00000000000000000 ) ) ;
#130 = DIRECTION ( 'NONE',  ( -3.491481338843133355E-15, 1.224646799147353207E-16, -1.000000000000000000 ) ) ;
#131 = AXIS2_PLACEMENT_3D ( 'NONE', #122, #265, #102 ) ;
#132 = CC_DESIGN_PERSON_AND_ORGANIZATION_ASSIGNMENT ( #159, #303, ( #176 ) ) ;
#133 = FACE_OUTER_BOUND ( 'NONE', #260, .T. ) ;
#134 = VERTEX_POINT ( 'NONE', #232 ) ;
#135 = CC_DESIGN_APPROVAL ( #233, ( #128 ) ) ;
#136 = EDGE_CURVE ( 'NONE', #134, #134, #208, .T. ) ;
#137 = FACE_OUTER_BOUND ( 'NONE', #275, .T. ) ;
#138 = ORIENTED_EDGE ( 'NONE', *, *, #301, .F. ) ;
#139 = ADVANCED_BREP_SHAPE_REPRESENTATION ( '200131', ( #123, #230, #257 ), #185 ) ;
#140 = DESIGN_CONTEXT ( 'detailed design', #198, 'design' ) ;
#141 = ORIENTED_EDGE ( 'NONE', *, *, #48, .T. ) ;
#142 = EDGE_CURVE ( 'NONE', #41, #41, #255, .T. ) ;
#143 = FACE_OUTER_BOUND ( 'NONE', #67, .T. ) ;
#144 = DIRECTION ( 'NONE',  ( -3.491481338843133355E-15, 1.224646799147353207E-16, -1.000000000000000000 ) ) ;
#145 = APPLICATION_CONTEXT ( 'configuration controlled 3d designs of mechanical parts and assemblies' ) ;
#146 = FACE_OUTER_BOUND ( 'NONE', #71, .T. ) ;
#147 = AXIS2_PLACEMENT_3D ( 'NONE', #229, #188, #54 ) ;
#148 = DIRECTION ( 'NONE',  ( -3.491481338843133355E-15, 1.224646799147353207E-16, -1.000000000000000000 ) ) ;
#149 = DIRECTION ( 'NONE',  ( -3.491481338843133355E-15, 1.224646799147353207E-16, -1.000000000000000000 ) ) ;
#150 =( NAMED_UNIT ( * ) SI_UNIT ( $, .STERADIAN. ) SOLID_ANGLE_UNIT ( ) );
#151 = EDGE_CURVE ( 'NONE', #225, #225, #235, .T. ) ;
#152 = EDGE_LOOP ( 'NONE', ( #25 ) ) ;
#153 = CIRCLE ( 'NONE', #118, 1.153499999999994863 ) ;
#154 = EDGE_LOOP ( 'NONE', ( #300 ) ) ;
#155 = EDGE_LOOP ( 'NONE', ( #3 ) ) ;
#156 = APPROVAL_ROLE ( '' ) ;
#157 = EDGE_LOOP ( 'NONE', ( #42 ) ) ;
#158 = CONICAL_SURFACE ( 'NONE', #190, 1.200000000000001732, 0.7853981633974453924 ) ;
#159 = PERSON_AND_ORGANIZATION ( #22, #32 ) ;
#160 = EDGE_CURVE ( 'NONE', #270, #270, #83, .T. ) ;
#161 = CYLINDRICAL_SURFACE ( 'NONE', #249, 0.9999999999999991118 ) ;
#162 = CLOSED_SHELL ( 'NONE', ( #295, #186, #74, #182 ) ) ;
#163 = CC_DESIGN_SECURITY_CLASSIFICATION ( #250, ( #176 ) ) ;
#164 = EDGE_LOOP ( 'NONE', ( #286 ) ) ;
#165 = CC_DESIGN_DATE_AND_TIME_ASSIGNMENT ( #273, #16, ( #250 ) ) ;
#166 = CYLINDRICAL_SURFACE ( 'NONE', #1, 1.153499999999994419 ) ;
#167 = DIRECTION ( 'NONE',  ( -4.275831445896958607E-31, -1.000000000000000000, -1.224646799147353207E-16 ) ) ;
#168 = AXIS2_PLACEMENT_3D ( 'NONE', #258, #7, #93 ) ;
#169 = DIRECTION ( 'NONE',  ( 3.491481338843133355E-15, -1.224646799147353207E-16, 1.000000000000000000 ) ) ;
#170 = DIRECTION ( 'NONE',  ( 0.0000000000000000000, 1.000000000000000000, 0.0000000000000000000 ) ) ;
#171 = CYLINDRICAL_SURFACE ( 'NONE', #181, 1.499999999999999112 ) ;
#172 = TOROIDAL_SURFACE ( 'NONE', #44, 2.999999999999999556, 2.000000000000000000 ) ;
#173 = DIRECTION ( 'NONE',  ( 3.491481338843133355E-15, -1.224646799147353207E-16, 1.000000000000000000 ) ) ;
#174 = COORDINATED_UNIVERSAL_TIME_OFFSET ( 1, 0, .AHEAD. ) ;
#175 = PERSON_AND_ORGANIZATION ( #22, #32 ) ;
#176 = PRODUCT_DEFINITION_FORMATION_WITH_SPECIFIED_SOURCE ( 'ANY', '', #35, .NOT_KNOWN. ) ;
#177 = PERSON_AND_ORGANIZATION_ROLE ( 'design_supplier' ) ;
#178 = DIRECTION ( 'NONE',  ( -3.491481338843133355E-15, 1.224646799147353207E-16, -1.000000000000000000 ) ) ;
#179 = DATE_TIME_ROLE ( 'creation_date' ) ;
#180 = DATE_AND_TIME ( #89, #94 ) ;
#181 = AXIS2_PLACEMENT_3D ( 'NONE', #75, #267, #34 ) ;
#182 = ADVANCED_FACE ( 'NONE', ( #293 ), #220, .T. ) ;
#183 = EDGE_LOOP ( 'NONE', ( #21 ) ) ;
#184 = DIRECTION ( 'NONE',  ( 4.275831445896958607E-31, 1.000000000000000000, 1.224646799147353207E-16 ) ) ;
#185 =( GEOMETRIC_REPRESENTATION_CONTEXT ( 3 ) GLOBAL_UNCERTAINTY_ASSIGNED_CONTEXT ( ( #234 ) ) GLOBAL_UNIT_ASSIGNED_CONTEXT ( ( #302, #59, #150 ) ) REPRESENTATION_CONTEXT ( 'NONE', 'WORKASPACE' ) );
#186 = ADVANCED_FACE ( 'NONE', ( #116, #243 ), #217, .T. ) ;
#187 = CARTESIAN_POINT ( 'NONE',  ( 6.284666409917640040E-14, -2.168404344971008868E-15, 18.00000000000000000 ) ) ;
#188 = DIRECTION ( 'NONE',  ( -3.491481338843133355E-15, 1.224646799147353207E-16, -1.000000000000000000 ) ) ;
#189 = CARTESIAN_POINT ( 'NONE',  ( 2.793185071074506684E-14, 8.649864546502208659E-33, 8.000000000000000000 ) ) ;
#190 = AXIS2_PLACEMENT_3D ( 'NONE', #222, #148, #8 ) ;
#191 = DIRECTION ( 'NONE',  ( -3.491481338843133355E-15, 1.224646799147353207E-16, -1.000000000000000000 ) ) ;
#192 = EDGE_CURVE ( 'NONE', #24, #24, #68, .T. ) ;
#193 = FACE_BOUND ( 'NONE', #183, .T. ) ;
#194 = DIRECTION ( 'NONE',  ( -4.275831445896958607E-31, -1.000000000000000000, -1.224646799147353207E-16 ) ) ;
#195 = ADVANCED_FACE ( 'NONE', ( #264, #143 ), #171, .T. ) ;
#196 = PLANE ( 'NONE',  #202 ) ;
#197 = PERSON_AND_ORGANIZATION ( #22, #32 ) ;
#198 = APPLICATION_CONTEXT ( 'configuration controlled 3d designs of mechanical parts and assemblies' ) ;
#199 = DATE_AND_TIME ( #298, #127 ) ;
#200 = CARTESIAN_POINT ( 'NONE',  ( 6.284666409917640040E-14, 0.9999999999999974465, 18.00000000000000000 ) ) ;
#201 = ORIENTED_EDGE ( 'NONE', *, *, #136, .T. ) ;
#202 = AXIS2_PLACEMENT_3D ( 'NONE', #31, #191, #56 ) ;
#203 = APPROVAL_STATUS ( 'not_yet_approved' ) ;
#204 = ORIENTED_EDGE ( 'NONE', *, *, #207, .F. ) ;
#205 = DATE_AND_TIME ( #106, #223 ) ;
#206 = VERTEX_POINT ( 'NONE', #57 ) ;
#207 = EDGE_CURVE ( 'NONE', #19, #19, #82, .T. ) ;
#208 = CIRCLE ( 'NONE', #147, 1.153499999999994863 ) ;
#209 = ORIENTED_EDGE ( 'NONE', *, *, #142, .F. ) ;
#210 = ORIENTED_EDGE ( 'NONE', *, *, #84, .F. ) ;
#211 = CC_DESIGN_PERSON_AND_ORGANIZATION_ASSIGNMENT ( #227, #177, ( #176 ) ) ;
#212 = FACE_OUTER_BOUND ( 'NONE', #18, .T. ) ;
#213 = LOCAL_TIME ( 7, 44, 54.00000000000000000, #124 ) ;
#214 = DIRECTION ( 'NONE',  ( -3.491481338843133355E-15, 1.224646799147353207E-16, -1.000000000000000000 ) ) ;
#215 = DIRECTION ( 'NONE',  ( 3.491481338843133355E-15, -1.224646799147353207E-16, 1.000000000000000000 ) ) ;
#216 = FACE_OUTER_BOUND ( 'NONE', #237, .T. ) ;
#217 = CONICAL_SURFACE ( 'NONE', #126, 1.153499999999993753, 0.5235987755982925984 ) ;
#218 = AXIS2_PLACEMENT_3D ( 'NONE', #33, #149, #289 ) ;
#219 = PLANE ( 'NONE',  #288 ) ;
#220 = PLANE ( 'NONE',  #114 ) ;
#221 = CC_DESIGN_PERSON_AND_ORGANIZATION_ASSIGNMENT ( #15, #294, ( #35 ) ) ;
#222 = CARTESIAN_POINT ( 'NONE',  ( 1.745740669421566678E-13, -6.123233995736766085E-15, 50.00000000000000000 ) ) ;
#223 = LOCAL_TIME ( 7, 44, 54.00000000000000000, #109 ) ;
#224 = PERSON_AND_ORGANIZATION ( #22, #32 ) ;
#225 = VERTEX_POINT ( 'NONE', #129 ) ;
#226 = PERSON_AND_ORGANIZATION ( #22, #32 ) ;
#227 = PERSON_AND_ORGANIZATION ( #22, #32 ) ;
#228 = DIRECTION ( 'NONE',  ( 4.275831445896958607E-31, 1.000000000000000000, 1.224646799147352961E-16 ) ) ;
#229 = CARTESIAN_POINT ( 'NONE',  ( 2.793185071074506684E-14, -9.797174393178825657E-16, 8.000000000000000000 ) ) ;
#230 = MANIFOLD_SOLID_BREP ( 'Corps-Déplacer/Copier1[2]', #162 ) ;
#231 = EDGE_LOOP ( 'NONE', ( #280 ) ) ;
#232 = CARTESIAN_POINT ( 'NONE',  ( 2.793185071074506684E-14, 1.153499999999993753, 8.000000000000000000 ) ) ;
#233 = APPROVAL ( #64, 'UNSPECIFIED' ) ;
#234 = UNCERTAINTY_MEASURE_WITH_UNIT (LENGTH_MEASURE( 1.000000000000000082E-05 ), #302, 'distance_accuracy_value', 'NONE');
#235 = CIRCLE ( 'NONE', #218, 1.200000000000001732 ) ;
#236 = FACE_OUTER_BOUND ( 'NONE', #259, .T. ) ;
#237 = EDGE_LOOP ( 'NONE', ( #50 ) ) ;
#238 = EDGE_LOOP ( 'NONE', ( #138 ) ) ;
#239 = AXIS2_PLACEMENT_3D ( 'NONE', #29, #242, #101 ) ;
#240 = CARTESIAN_POINT ( 'NONE',  ( 6.284666409917640040E-14, -2.204364238465235428E-15, 18.00000000000000000 ) ) ;
#241 = ADVANCED_FACE ( 'NONE', ( #117, #216 ), #244, .T. ) ;
#242 = DIRECTION ( 'NONE',  ( -3.491481338843133355E-15, 1.224646799147353207E-16, -1.000000000000000000 ) ) ;
#243 = FACE_OUTER_BOUND ( 'NONE', #164, .T. ) ;
#244 = CONICAL_SURFACE ( 'NONE', #131, 1.499999999999996669, 0.1745329251994259812 ) ;
#245 = CARTESIAN_POINT ( 'NONE',  ( 2.886013015238223984E-14, -1.012277099146736966E-15, 8.265869798961821502 ) ) ;
#246 = ADVANCED_FACE ( 'NONE', ( #9, #99 ), #158, .T. ) ;
#247 = DIRECTION ( 'NONE',  ( -5.008920531566310151E-31, -1.000000000000000000, -1.409885789968153821E-16 ) ) ;
#248 = CARTESIAN_POINT ( 'NONE',  ( 1.735266225405037467E-13, 1.499999999999995559, 49.70000000000000284 ) ) ;
#249 = AXIS2_PLACEMENT_3D ( 'NONE', #5, #95, #43 ) ;
#250 = SECURITY_CLASSIFICATION ( '', '', #36 ) ;
#251 = PERSON_AND_ORGANIZATION ( #22, #32 ) ;
#252 = CALENDAR_DATE ( 2021, 30, 11 ) ;
#253 = FACE_OUTER_BOUND ( 'NONE', #157, .T. ) ;
#254 = ORIENTED_EDGE ( 'NONE', *, *, #151, .F. ) ;
#255 = CIRCLE ( 'NONE', #38, 1.153499999999993753 ) ;
#256 = VERTEX_POINT ( 'NONE', #86 ) ;
#257 = AXIS2_PLACEMENT_3D ( 'NONE', #37, #125, #104 ) ;
#258 = CARTESIAN_POINT ( 'NONE',  ( 6.405924284287275164E-14, -2.246895775456749140E-15, 18.34729635533384595 ) ) ;
#259 = EDGE_LOOP ( 'NONE', ( #209 ) ) ;
#260 = EDGE_LOOP ( 'NONE', ( #141 ) ) ;
#261 = CARTESIAN_POINT ( 'NONE',  ( -6.207744290150765106E-31, 2.177383590822036565E-32, -1.777968629271734289E-16 ) ) ;
#262 = AXIS2_PLACEMENT_3D ( 'NONE', #23, #178, #27 ) ;
#263 = ADVANCED_FACE ( 'NONE', ( #98 ), #196, .F. ) ;
#264 = FACE_OUTER_BOUND ( 'NONE', #154, .T. ) ;
#265 = DIRECTION ( 'NONE',  ( 3.491481338843133355E-15, -1.224646799147353207E-16, 1.000000000000000000 ) ) ;
#266 = APPROVAL ( #203, 'UNSPECIFIED' ) ;
#267 = DIRECTION ( 'NONE',  ( -3.491481338843133355E-15, 1.224646799147353207E-16, -1.000000000000000000 ) ) ;
#268 = AXIS2_PLACEMENT_3D ( 'NONE', #245, #119, #76 ) ;
#269 = DIRECTION ( 'NONE',  ( -3.491481338843133355E-15, 1.224646799147353207E-16, -1.000000000000000000 ) ) ;
#270 = VERTEX_POINT ( 'NONE', #200 ) ;
#271 = VERTEX_POINT ( 'NONE', #105 ) ;
#272 = APPROVAL_ROLE ( '' ) ;
#273 = DATE_AND_TIME ( #60, #213 ) ;
#274 = CARTESIAN_POINT ( 'NONE',  ( 7.335818149155665618E-14, 1.499999999999994005, 21.01061823686078966 ) ) ;
#275 = EDGE_LOOP ( 'NONE', ( #108 ) ) ;
#276 = APPLICATION_PROTOCOL_DEFINITION ( 'international standard', 'config_control_design', 1994, #198 ) ;
#277 = AXIS2_PLACEMENT_3D ( 'NONE', #261, #52, #228 ) ;
#278 = COORDINATED_UNIVERSAL_TIME_OFFSET ( 1, 0, .AHEAD. ) ;
#279 = CC_DESIGN_APPROVAL ( #78, ( #250 ) ) ;
#280 = ORIENTED_EDGE ( 'NONE', *, *, #151, .T. ) ;
#281 = ADVANCED_FACE ( 'NONE', ( #146, #193 ), #65, .T. ) ;
#282 = LOCAL_TIME ( 7, 44, 54.00000000000000000, #174 ) ;
#283 = EDGE_LOOP ( 'NONE', ( #254 ) ) ;
#284 = DIRECTION ( 'NONE',  ( 4.275831445896958607E-31, 1.000000000000000000, 1.224646799147353207E-16 ) ) ;
#285 = ADVANCED_FACE ( 'NONE', ( #120 ), #219, .F. ) ;
#286 = ORIENTED_EDGE ( 'NONE', *, *, #142, .T. ) ;
#287 = DIRECTION ( 'NONE',  ( 0.0000000000000000000, 1.000000000000000000, 0.0000000000000000000 ) ) ;
#288 = AXIS2_PLACEMENT_3D ( 'NONE', #189, #10, #194 ) ;
#289 = DIRECTION ( 'NONE',  ( 0.0000000000000000000, 1.000000000000000000, 0.0000000000000000000 ) ) ;
#290 = CC_DESIGN_DATE_AND_TIME_ASSIGNMENT ( #205, #179, ( #128 ) ) ;
#291 = DIRECTION ( 'NONE',  ( -3.491481338843133355E-15, 1.224646799147353207E-16, -1.000000000000000000 ) ) ;
#292 = FACE_OUTER_BOUND ( 'NONE', #49, .T. ) ;
#293 = FACE_OUTER_BOUND ( 'NONE', #70, .T. ) ;
#294 = PERSON_AND_ORGANIZATION_ROLE ( 'design_owner' ) ;
#295 = ADVANCED_FACE ( 'NONE', ( #292 ), #100, .F. ) ;
#296 = MECHANICAL_CONTEXT ( 'NONE', #145, 'mechanical' ) ;
#297 = APPROVAL_PERSON_ORGANIZATION ( #226, #266, #299 ) ;
#298 = CALENDAR_DATE ( 2021, 30, 11 ) ;
#299 = APPROVAL_ROLE ( '' ) ;
#300 = ORIENTED_EDGE ( 'NONE', *, *, #192, .F. ) ;
#301 = EDGE_CURVE ( 'NONE', #256, #256, #107, .T. ) ;
#302 =( LENGTH_UNIT ( ) NAMED_UNIT ( * ) SI_UNIT ( .MILLI., .METRE. ) );
#303 = PERSON_AND_ORGANIZATION_ROLE ( 'creator' ) ;
ENDSEC;
END-ISO-10303-21;
