ISO-10303-21;
HEADER;
FILE_DESCRIPTION (( 'STEP AP203' ),
    '1' );
FILE_NAME ('200130.step',
    '2021-11-30T06:44:54',
    ( '' ),
    ( '' ),
    'SwSTEP 2.0',
    'SolidWorks 2019',
    '' );
FILE_SCHEMA (( 'CONFIG_CONTROL_DESIGN' ));
ENDSEC;

DATA;
#1 = VERTEX_POINT ( 'NONE', #277 ) ;
#2 = CIRCLE ( 'NONE', #170, 1.200000000000001732 ) ;
#3 = EDGE_CURVE ( 'NONE', #204, #204, #102, .T. ) ;
#4 = DIRECTION ( 'NONE',  ( -4.275831445896958607E-31, -1.000000000000000000, -1.224646799147353207E-16 ) ) ;
#5 = VERTEX_POINT ( 'NONE', #100 ) ;
#6 = SHAPE_DEFINITION_REPRESENTATION ( #112, #42 ) ;
#7 = CONICAL_SURFACE ( 'NONE', #151, 1.178499999999993886, 0.5235987755982924874 ) ;
#8 = DIRECTION ( 'NONE',  ( -3.491481338843133355E-15, 1.224646799147353207E-16, -1.000000000000000000 ) ) ;
#9 = CALENDAR_DATE ( 2021, 30, 11 ) ;
#10 = APPLICATION_CONTEXT ( 'configuration controlled 3d designs of mechanical parts and assemblies' ) ;
#11 = DATE_TIME_ROLE ( 'creation_date' ) ;
#12 = EDGE_CURVE ( 'NONE', #180, #180, #300, .T. ) ;
#13 = CARTESIAN_POINT ( 'NONE',  ( -4.103687951340675345E-31, 1.439379972735036606E-32, -1.175342942746585442E-16 ) ) ;
#14 = DATE_TIME_ROLE ( 'classification_date' ) ;
#15 = DIRECTION ( 'NONE',  ( -4.275831445896958607E-31, -1.000000000000000000, -1.224646799147353207E-16 ) ) ;
#16 = AXIS2_PLACEMENT_3D ( 'NONE', #79, #217, #290 ) ;
#17 = LOCAL_TIME ( 7, 44, 54.00000000000000000, #171 ) ;
#18 = DIRECTION ( 'NONE',  ( 3.491481338843133355E-15, -1.224646799147353207E-16, 1.000000000000000000 ) ) ;
#19 = DIRECTION ( 'NONE',  ( 3.491481338843133355E-15, -1.224646799147353207E-16, 1.000000000000000000 ) ) ;
#20 = DIRECTION ( 'NONE',  ( 4.275831445896958607E-31, 1.000000000000000000, 1.224646799147353454E-16 ) ) ;
#21 = AXIS2_PLACEMENT_3D ( 'NONE', #256, #101, #52 ) ;
#22 = EDGE_LOOP ( 'NONE', ( #176 ) ) ;
#23 = CARTESIAN_POINT ( 'NONE',  ( -8.207375902681350690E-31, 2.878759945470073212E-32, -2.350685885493170884E-16 ) ) ;
#24 = ORIENTED_EDGE ( 'NONE', *, *, #85, .T. ) ;
#25 = DIRECTION ( 'NONE',  ( 0.0000000000000000000, 0.0000000000000000000, 1.000000000000000000 ) ) ;
#26 = FACE_OUTER_BOUND ( 'NONE', #64, .T. ) ;
#27 = FACE_OUTER_BOUND ( 'NONE', #224, .T. ) ;
#28 = EDGE_LOOP ( 'NONE', ( #95 ) ) ;
#29 = DIRECTION ( 'NONE',  ( 0.0000000000000000000, 1.000000000000000000, 0.0000000000000000000 ) ) ;
#30 = CARTESIAN_POINT ( 'NONE',  ( 7.104220552055901835E-14, 1.055384493975578319, 20.34729635533384595 ) ) ;
#31 = DIRECTION ( 'NONE',  ( 3.491481338843133355E-15, -1.224646799147353207E-16, 1.000000000000000000 ) ) ;
#32 = PERSON_AND_ORGANIZATION ( #75, #198 ) ;
#33 = CIRCLE ( 'NONE', #259, 1.178499999999993886 ) ;
#34 = AXIS2_PLACEMENT_3D ( 'NONE', #187, #25, #118 ) ;
#35 = CARTESIAN_POINT ( 'NONE',  ( 8.728703347107829444E-16, -3.061616997868381785E-17, 0.2499999999999998890 ) ) ;
#36 = APPROVAL ( #294, 'UNSPECIFIED' ) ;
#37 = MANIFOLD_SOLID_BREP ( 'Corps-Déplacer/Copier1[1]', #225 ) ;
#38 = CARTESIAN_POINT ( 'NONE',  ( 3.491481338843133355E-14, -1.224646799147353256E-15, 10.00000000000000000 ) ) ;
#39 = EDGE_LOOP ( 'NONE', ( #137 ) ) ;
#40 = UNCERTAINTY_MEASURE_WITH_UNIT (LENGTH_MEASURE( 1.000000000000000082E-05 ), #302, 'distance_accuracy_value', 'NONE');
#41 = MANIFOLD_SOLID_BREP ( 'Corps-Déplacer/Copier1[2]', #249 ) ;
#42 = ADVANCED_BREP_SHAPE_REPRESENTATION ( '200130', ( #37, #41, #34 ), #72 ) ;
#43 = DIRECTION ( 'NONE',  ( -4.275831445896958607E-31, -1.000000000000000000, -1.224646799147353207E-16 ) ) ;
#44 = ADVANCED_FACE ( 'NONE', ( #47, #184 ), #269, .T. ) ;
#45 = APPLICATION_PROTOCOL_DEFINITION ( 'international standard', 'config_control_design', 1994, #144 ) ;
#46 = ORIENTED_EDGE ( 'NONE', *, *, #222, .T. ) ;
#47 = FACE_OUTER_BOUND ( 'NONE', #99, .T. ) ;
#48 =( NAMED_UNIT ( * ) PLANE_ANGLE_UNIT ( ) SI_UNIT ( $, .RADIAN. ) );
#49 = AXIS2_PLACEMENT_3D ( 'NONE', #232, #115, #142 ) ;
#50 = CC_DESIGN_PERSON_AND_ORGANIZATION_ASSIGNMENT ( #216, #124, ( #153 ) ) ;
#51 = VERTEX_POINT ( 'NONE', #162 ) ;
#52 = DIRECTION ( 'NONE',  ( 0.0000000000000000000, -1.000000000000000000, 0.0000000000000000000 ) ) ;
#53 = PERSON_AND_ORGANIZATION ( #75, #198 ) ;
#54 = AXIS2_PLACEMENT_3D ( 'NONE', #205, #8, #167 ) ;
#55 = FACE_OUTER_BOUND ( 'NONE', #136, .T. ) ;
#56 = DIRECTION ( 'NONE',  ( -3.491481338843133355E-15, 1.224646799147353207E-16, -1.000000000000000000 ) ) ;
#57 = ADVANCED_FACE ( 'NONE', ( #157, #196 ), #279, .T. ) ;
#58 = PRODUCT_DEFINITION_FORMATION_WITH_SPECIFIED_SOURCE ( 'ANY', '', #299, .NOT_KNOWN. ) ;
#59 = DIRECTION ( 'NONE',  ( -3.491481338843133355E-15, 1.224646799147353207E-16, -1.000000000000000000 ) ) ;
#60 = CC_DESIGN_APPROVAL ( #61, ( #58 ) ) ;
#61 = APPROVAL ( #149, 'UNSPECIFIED' ) ;
#62 = ORIENTED_EDGE ( 'NONE', *, *, #258, .T. ) ;
#63 = AXIS2_PLACEMENT_3D ( 'NONE', #211, #156, #155 ) ;
#64 = EDGE_LOOP ( 'NONE', ( #200 ) ) ;
#65 = LOCAL_TIME ( 7, 44, 54.00000000000000000, #193 ) ;
#66 = DIRECTION ( 'NONE',  ( 0.0000000000000000000, 1.000000000000000000, 0.0000000000000000000 ) ) ;
#67 = EDGE_LOOP ( 'NONE', ( #247 ) ) ;
#68 = CARTESIAN_POINT ( 'NONE',  ( 7.984611480323003910E-14, 1.499999999999994005, 22.86883619137034529 ) ) ;
#69 = EDGE_LOOP ( 'NONE', ( #158 ) ) ;
#70 = ADVANCED_FACE ( 'NONE', ( #84, #266 ), #7, .T. ) ;
#71 = CARTESIAN_POINT ( 'NONE',  ( 3.491481338843133355E-14, 1.178499999999993886, 10.00000000000000000 ) ) ;
#72 =( GEOMETRIC_REPRESENTATION_CONTEXT ( 3 ) GLOBAL_UNCERTAINTY_ASSIGNED_CONTEXT ( ( #40 ) ) GLOBAL_UNIT_ASSIGNED_CONTEXT ( ( #302, #48, #89 ) ) REPRESENTATION_CONTEXT ( 'NONE', 'WORKASPACE' ) );
#73 = CARTESIAN_POINT ( 'NONE',  ( -3.785471652766322713E-31, 1.034162432702589340, -1.084202172485504681E-16 ) ) ;
#74 = DATE_AND_TIME ( #106, #220 ) ;
#75 = PERSON ( 'UNSPECIFIED', 'UNSPECIFIED', 'UNSPECIFIED', ('UNSPECIFIED'), ('UNSPECIFIED'), ('UNSPECIFIED') ) ;
#76 = CC_DESIGN_DATE_AND_TIME_ASSIGNMENT ( #78, #14, ( #178 ) ) ;
#77 = APPLICATION_PROTOCOL_DEFINITION ( 'international standard', 'config_control_design', 1994, #10 ) ;
#78 = DATE_AND_TIME ( #236, #226 ) ;
#79 = CARTESIAN_POINT ( 'NONE',  ( 6.982962677686266711E-14, -2.449293598294706513E-15, 20.00000000000000000 ) ) ;
#80 = CIRCLE ( 'NONE', #242, 1.024999999999998801 ) ;
#81 = PLANE ( 'NONE',  #63 ) ;
#82 = CARTESIAN_POINT ( 'NONE',  ( 1.745740669421566678E-13, -6.123233995736766085E-15, 50.00000000000000000 ) ) ;
#83 = DESIGN_CONTEXT ( 'detailed design', #10, 'design' ) ;
#84 = FACE_BOUND ( 'NONE', #303, .T. ) ;
#85 = EDGE_CURVE ( 'NONE', #51, #51, #288, .T. ) ;
#86 = CIRCLE ( 'NONE', #54, 1.500000000000001554 ) ;
#87 = DIRECTION ( 'NONE',  ( -3.491481338843133355E-15, 1.224646799147353207E-16, -1.000000000000000000 ) ) ;
#88 = FACE_BOUND ( 'NONE', #92, .T. ) ;
#89 =( NAMED_UNIT ( * ) SI_UNIT ( $, .STERADIAN. ) SOLID_ANGLE_UNIT ( ) );
#90 = CC_DESIGN_PERSON_AND_ORGANIZATION_ASSIGNMENT ( #238, #126, ( #178 ) ) ;
#91 = CARTESIAN_POINT ( 'NONE',  ( 7.104220552055901835E-14, -2.491825135286219831E-15, 20.34729635533384595 ) ) ;
#92 = EDGE_LOOP ( 'NONE', ( #293 ) ) ;
#93 = CARTESIAN_POINT ( 'NONE',  ( 1.745740669421566678E-13, -6.123233995736766085E-15, 50.00000000000000000 ) ) ;
#94 = AXIS2_PLACEMENT_3D ( 'NONE', #38, #130, #295 ) ;
#95 = ORIENTED_EDGE ( 'NONE', *, *, #131, .F. ) ;
#96 = ORIENTED_EDGE ( 'NONE', *, *, #12, .T. ) ;
#97 = DIRECTION ( 'NONE',  ( -3.491481338843133355E-15, 1.224646799147353207E-16, -1.000000000000000000 ) ) ;
#98 = DIRECTION ( 'NONE',  ( -3.491481338843133355E-15, 1.224646799147353207E-16, -1.000000000000000000 ) ) ;
#99 = EDGE_LOOP ( 'NONE', ( #230 ) ) ;
#100 = CARTESIAN_POINT ( 'NONE',  ( 1.735266225405037467E-13, 1.499999999999995559, 49.70000000000000284 ) ) ;
#101 = DIRECTION ( 'NONE',  ( 3.491481338843133355E-15, -1.224646799147353207E-16, 1.000000000000000000 ) ) ;
#102 = CIRCLE ( 'NONE', #132, 1.055384493975580540 ) ;
#103 = PERSON_AND_ORGANIZATION ( #75, #198 ) ;
#104 = APPROVAL_ROLE ( '' ) ;
#105 = ADVANCED_FACE ( 'NONE', ( #133 ), #81, .F. ) ;
#106 = CALENDAR_DATE ( 2021, 30, 11 ) ;
#107 = DATE_AND_TIME ( #9, #17 ) ;
#108 = EDGE_LOOP ( 'NONE', ( #46 ) ) ;
#109 = ADVANCED_FACE ( 'NONE', ( #229, #26 ), #119, .T. ) ;
#110 = COORDINATED_UNIVERSAL_TIME_OFFSET ( 1, 0, .AHEAD. ) ;
#111 = DIRECTION ( 'NONE',  ( 0.0000000000000000000, 1.000000000000000000, 0.0000000000000000000 ) ) ;
#112 = PRODUCT_DEFINITION_SHAPE ( 'NONE', 'NONE',  #153 ) ;
#113 = AXIS2_PLACEMENT_3D ( 'NONE', #255, #31, #4 ) ;
#114 = EDGE_LOOP ( 'NONE', ( #301 ) ) ;
#115 = DIRECTION ( 'NONE',  ( -3.491481338843133355E-15, 1.224646799147353207E-16, -1.000000000000000000 ) ) ;
#116 = DIRECTION ( 'NONE',  ( 0.0000000000000000000, 1.000000000000000000, 0.0000000000000000000 ) ) ;
#117 = EDGE_LOOP ( 'NONE', ( #186 ) ) ;
#118 = DIRECTION ( 'NONE',  ( 1.000000000000000000, 0.0000000000000000000, 0.0000000000000000000 ) ) ;
#119 = CYLINDRICAL_SURFACE ( 'NONE', #212, 1.024999999999999245 ) ;
#120 = CONICAL_SURFACE ( 'NONE', #21, 1.499999999999996669, 0.1745329251994261199 ) ;
#121 = EDGE_LOOP ( 'NONE', ( #282 ) ) ;
#122 = CC_DESIGN_PERSON_AND_ORGANIZATION_ASSIGNMENT ( #173, #166, ( #58 ) ) ;
#123 = DIRECTION ( 'NONE',  ( -3.491481338843133355E-15, 1.224646799147353207E-16, -1.000000000000000000 ) ) ;
#124 = PERSON_AND_ORGANIZATION_ROLE ( 'creator' ) ;
#125 = APPROVAL_STATUS ( 'not_yet_approved' ) ;
#126 = PERSON_AND_ORGANIZATION_ROLE ( 'classification_officer' ) ;
#127 = ADVANCED_FACE ( 'NONE', ( #88, #27 ), #120, .T. ) ;
#128 = COORDINATED_UNIVERSAL_TIME_OFFSET ( 1, 0, .AHEAD. ) ;
#129 = DIRECTION ( 'NONE',  ( 4.275831445896958607E-31, 1.000000000000000000, 1.224646799147353207E-16 ) ) ;
#130 = DIRECTION ( 'NONE',  ( -3.491481338843133355E-15, 1.224646799147353207E-16, -1.000000000000000000 ) ) ;
#131 = EDGE_CURVE ( 'NONE', #5, #5, #86, .T. ) ;
#132 = AXIS2_PLACEMENT_3D ( 'NONE', #91, #163, #138 ) ;
#133 = FACE_OUTER_BOUND ( 'NONE', #69, .T. ) ;
#134 = ADVANCED_FACE ( 'NONE', ( #281, #268 ), #292, .F. ) ;
#135 = ORIENTED_EDGE ( 'NONE', *, *, #258, .F. ) ;
#136 = EDGE_LOOP ( 'NONE', ( #96 ) ) ;
#137 = ORIENTED_EDGE ( 'NONE', *, *, #85, .F. ) ;
#138 = DIRECTION ( 'NONE',  ( 0.0000000000000000000, 1.000000000000000000, 0.0000000000000000000 ) ) ;
#139 = ORIENTED_EDGE ( 'NONE', *, *, #145, .F. ) ;
#140 = CYLINDRICAL_SURFACE ( 'NONE', #141, 1.178499999999994330 ) ;
#141 = AXIS2_PLACEMENT_3D ( 'NONE', #143, #123, #201 ) ;
#142 = DIRECTION ( 'NONE',  ( 0.0000000000000000000, 1.000000000000000000, 0.0000000000000000000 ) ) ;
#143 = CARTESIAN_POINT ( 'NONE',  ( 0.0000000000000000000, 0.0000000000000000000, 0.0000000000000000000 ) ) ;
#144 = APPLICATION_CONTEXT ( 'configuration controlled 3d designs of mechanical parts and assemblies' ) ;
#145 = EDGE_CURVE ( 'NONE', #253, #253, #244, .T. ) ;
#146 = COORDINATED_UNIVERSAL_TIME_OFFSET ( 1, 0, .AHEAD. ) ;
#147 = PERSON_AND_ORGANIZATION ( #75, #198 ) ;
#148 = APPROVAL_PERSON_ORGANIZATION ( #213, #61, #239 ) ;
#149 = APPROVAL_STATUS ( 'not_yet_approved' ) ;
#150 = PRODUCT_RELATED_PRODUCT_CATEGORY ( 'detail', '', ( #299 ) ) ;
#151 = AXIS2_PLACEMENT_3D ( 'NONE', #243, #18, #177 ) ;
#152 = DIRECTION ( 'NONE',  ( 3.491481338843133355E-15, -1.224646799147353207E-16, 1.000000000000000000 ) ) ;
#153 = PRODUCT_DEFINITION ( 'UNKNOWN', '', #58, #83 ) ;
#154 = CIRCLE ( 'NONE', #194, 1.034162432702589340 ) ;
#155 = DIRECTION ( 'NONE',  ( 4.275831445896958607E-31, 1.000000000000000000, 1.224646799147353207E-16 ) ) ;
#156 = DIRECTION ( 'NONE',  ( -3.491481338843133355E-15, 1.224646799147353207E-16, -1.000000000000000000 ) ) ;
#157 = FACE_OUTER_BOUND ( 'NONE', #28, .T. ) ;
#158 = ORIENTED_EDGE ( 'NONE', *, *, #245, .F. ) ;
#159 = DIRECTION ( 'NONE',  ( 4.902664262334948810E-31, 1.000000000000000000, 1.379977309060895194E-16 ) ) ;
#160 = FACE_OUTER_BOUND ( 'NONE', #276, .T. ) ;
#161 = EDGE_LOOP ( 'NONE', ( #62 ) ) ;
#162 = CARTESIAN_POINT ( 'NONE',  ( 3.491481338843133355E-14, 1.178499999999993886, 10.00000000000000000 ) ) ;
#163 = DIRECTION ( 'NONE',  ( -3.491481338843133355E-15, 1.224646799147353207E-16, -1.000000000000000000 ) ) ;
#164 = CARTESIAN_POINT ( 'NONE',  ( 3.584309283006851287E-14, -1.257206458976207854E-15, 10.26586979896182328 ) ) ;
#165 = ADVANCED_FACE ( 'NONE', ( #55 ), #191, .F. ) ;
#166 = PERSON_AND_ORGANIZATION_ROLE ( 'design_supplier' ) ;
#167 = DIRECTION ( 'NONE',  ( 0.0000000000000000000, 1.000000000000000000, 0.0000000000000000000 ) ) ;
#168 = DATE_AND_TIME ( #289, #65 ) ;
#169 = PLANE ( 'NONE',  #223 ) ;
#170 = AXIS2_PLACEMENT_3D ( 'NONE', #93, #234, #29 ) ;
#171 = COORDINATED_UNIVERSAL_TIME_OFFSET ( 1, 0, .AHEAD. ) ;
#172 = ADVANCED_FACE ( 'NONE', ( #273 ), #227, .T. ) ;
#173 = PERSON_AND_ORGANIZATION ( #75, #198 ) ;
#174 = DIRECTION ( 'NONE',  ( -3.491481338843133355E-15, 1.224646799147353207E-16, -1.000000000000000000 ) ) ;
#175 = APPROVAL_ROLE ( '' ) ;
#176 = ORIENTED_EDGE ( 'NONE', *, *, #12, .F. ) ;
#177 = DIRECTION ( 'NONE',  ( -4.902664262334948810E-31, -1.000000000000000000, -1.379977309060895194E-16 ) ) ;
#178 = SECURITY_CLASSIFICATION ( '', '', #291 ) ;
#179 = ORIENTED_EDGE ( 'NONE', *, *, #297, .T. ) ;
#180 = VERTEX_POINT ( 'NONE', #71 ) ;
#181 = DIRECTION ( 'NONE',  ( 4.275831445896958607E-31, 1.000000000000000000, 1.224646799147352961E-16 ) ) ;
#182 = AXIS2_PLACEMENT_3D ( 'NONE', #214, #19, #43 ) ;
#183 = CC_DESIGN_PERSON_AND_ORGANIZATION_ASSIGNMENT ( #147, #261, ( #58 ) ) ;
#184 = FACE_OUTER_BOUND ( 'NONE', #252, .T. ) ;
#185 = FACE_OUTER_BOUND ( 'NONE', #284, .T. ) ;
#186 = ORIENTED_EDGE ( 'NONE', *, *, #3, .T. ) ;
#187 = CARTESIAN_POINT ( 'NONE',  ( 0.0000000000000000000, 0.0000000000000000000, 0.0000000000000000000 ) ) ;
#188 = VERTEX_POINT ( 'NONE', #235 ) ;
#189 = AXIS2_PLACEMENT_3D ( 'NONE', #267, #298, #20 ) ;
#190 = DATE_AND_TIME ( #210, #280 ) ;
#191 = PLANE ( 'NONE',  #182 ) ;
#192 = APPROVAL_DATE_TIME ( #168, #208 ) ;
#193 = COORDINATED_UNIVERSAL_TIME_OFFSET ( 1, 0, .AHEAD. ) ;
#194 = AXIS2_PLACEMENT_3D ( 'NONE', #23, #209, #181 ) ;
#195 = ADVANCED_FACE ( 'NONE', ( #215 ), #169, .F. ) ;
#196 = FACE_BOUND ( 'NONE', #121, .T. ) ;
#197 = AXIS2_PLACEMENT_3D ( 'NONE', #82, #59, #111 ) ;
#198 = ORGANIZATION ( 'UNSPECIFIED', 'UNSPECIFIED', '' ) ;
#199 = CC_DESIGN_APPROVAL ( #36, ( #178 ) ) ;
#200 = ORIENTED_EDGE ( 'NONE', *, *, #145, .T. ) ;
#201 = DIRECTION ( 'NONE',  ( 4.275831445896958607E-31, 1.000000000000000000, 1.224646799147353207E-16 ) ) ;
#202 = EDGE_LOOP ( 'NONE', ( #139 ) ) ;
#203 = CARTESIAN_POINT ( 'NONE',  ( 1.745740669421566678E-13, 1.199999999999995515, 50.00000000000000000 ) ) ;
#204 = VERTEX_POINT ( 'NONE', #30 ) ;
#205 = CARTESIAN_POINT ( 'NONE',  ( 1.735266225405037467E-13, -6.086494591762345225E-15, 49.70000000000000284 ) ) ;
#206 = ORIENTED_EDGE ( 'NONE', *, *, #237, .F. ) ;
#207 = CARTESIAN_POINT ( 'NONE',  ( 6.982962677686266711E-14, 1.024999999999997247, 20.00000000000000000 ) ) ;
#208 = APPROVAL ( #125, 'UNSPECIFIED' ) ;
#209 = DIRECTION ( 'NONE',  ( -3.491481338843133355E-15, 1.224646799147353207E-16, -1.000000000000000000 ) ) ;
#210 = CALENDAR_DATE ( 2021, 30, 11 ) ;
#211 = CARTESIAN_POINT ( 'NONE',  ( 1.745740669421566678E-13, 8.998558695971067645E-33, 50.00000000000000000 ) ) ;
#212 = AXIS2_PLACEMENT_3D ( 'NONE', #275, #87, #272 ) ;
#213 = PERSON_AND_ORGANIZATION ( #75, #198 ) ;
#214 = CARTESIAN_POINT ( 'NONE',  ( 3.491481338843133355E-14, 8.837334519334940860E-33, 10.00000000000000000 ) ) ;
#215 = FACE_OUTER_BOUND ( 'NONE', #161, .T. ) ;
#216 = PERSON_AND_ORGANIZATION ( #75, #198 ) ;
#217 = DIRECTION ( 'NONE',  ( -3.491481338843133355E-15, 1.224646799147353207E-16, -1.000000000000000000 ) ) ;
#218 = PERSON_AND_ORGANIZATION_ROLE ( 'design_owner' ) ;
#219 = CONICAL_SURFACE ( 'NONE', #233, 1.024999999999998801, 0.5235987755982891567 ) ;
#220 = LOCAL_TIME ( 7, 44, 54.00000000000000000, #110 ) ;
#221 = CARTESIAN_POINT ( 'NONE',  ( 3.584309283006851287E-14, -1.257206458976207854E-15, 10.26586979896182328 ) ) ;
#222 = EDGE_CURVE ( 'NONE', #1, #1, #80, .T. ) ;
#223 = AXIS2_PLACEMENT_3D ( 'NONE', #13, #152, #15 ) ;
#224 = EDGE_LOOP ( 'NONE', ( #179 ) ) ;
#225 = CLOSED_SHELL ( 'NONE', ( #165, #263, #109, #134, #127, #44, #57, #105 ) ) ;
#226 = LOCAL_TIME ( 7, 44, 54.00000000000000000, #146 ) ;
#227 = PLANE ( 'NONE',  #113 ) ;
#228 = FACE_OUTER_BOUND ( 'NONE', #22, .T. ) ;
#229 = FACE_OUTER_BOUND ( 'NONE', #67, .T. ) ;
#230 = ORIENTED_EDGE ( 'NONE', *, *, #297, .F. ) ;
#231 = DIRECTION ( 'NONE',  ( -3.491481338843133355E-15, 1.224646799147353207E-16, -1.000000000000000000 ) ) ;
#232 = CARTESIAN_POINT ( 'NONE',  ( 7.984611480323003910E-14, -2.800624704198684243E-15, 22.86883619137034529 ) ) ;
#233 = AXIS2_PLACEMENT_3D ( 'NONE', #164, #97, #66 ) ;
#234 = DIRECTION ( 'NONE',  ( -3.491481338843133355E-15, 1.224646799147353207E-16, -1.000000000000000000 ) ) ;
#235 = CARTESIAN_POINT ( 'NONE',  ( 8.728703347107835360E-16, 1.178499999999993886, 0.2500000000000000555 ) ) ;
#236 = CALENDAR_DATE ( 2021, 30, 11 ) ;
#237 = EDGE_CURVE ( 'NONE', #188, #188, #33, .T. ) ;
#238 = PERSON_AND_ORGANIZATION ( #75, #198 ) ;
#239 = APPROVAL_ROLE ( '' ) ;
#240 = APPROVAL_DATE_TIME ( #74, #61 ) ;
#241 = CC_DESIGN_PERSON_AND_ORGANIZATION_ASSIGNMENT ( #103, #218, ( #299 ) ) ;
#242 = AXIS2_PLACEMENT_3D ( 'NONE', #221, #231, #262 ) ;
#243 = CARTESIAN_POINT ( 'NONE',  ( 8.728703347107829444E-16, -3.061616997868381785E-17, 0.2499999999999998890 ) ) ;
#244 = CIRCLE ( 'NONE', #16, 1.024999999999999689 ) ;
#245 = EDGE_CURVE ( 'NONE', #248, #248, #2, .T. ) ;
#246 = CC_DESIGN_DATE_AND_TIME_ASSIGNMENT ( #190, #11, ( #153 ) ) ;
#247 = ORIENTED_EDGE ( 'NONE', *, *, #222, .F. ) ;
#248 = VERTEX_POINT ( 'NONE', #203 ) ;
#249 = CLOSED_SHELL ( 'NONE', ( #195, #70, #274, #172 ) ) ;
#250 = CC_DESIGN_APPROVAL ( #208, ( #153 ) ) ;
#251 = ORIENTED_EDGE ( 'NONE', *, *, #131, .T. ) ;
#252 = EDGE_LOOP ( 'NONE', ( #251 ) ) ;
#253 = VERTEX_POINT ( 'NONE', #207 ) ;
#254 = AXIS2_PLACEMENT_3D ( 'NONE', #264, #56, #129 ) ;
#255 = CARTESIAN_POINT ( 'NONE',  ( 3.491481338843133355E-14, 8.837334519334940860E-33, 10.00000000000000000 ) ) ;
#256 = CARTESIAN_POINT ( 'NONE',  ( 7.984611480323003910E-14, -2.800624704198684243E-15, 22.86883619137034529 ) ) ;
#257 = APPROVAL_DATE_TIME ( #107, #36 ) ;
#258 = EDGE_CURVE ( 'NONE', #283, #283, #154, .T. ) ;
#259 = AXIS2_PLACEMENT_3D ( 'NONE', #35, #174, #159 ) ;
#260 = CC_DESIGN_SECURITY_CLASSIFICATION ( #178, ( #58 ) ) ;
#261 = PERSON_AND_ORGANIZATION_ROLE ( 'creator' ) ;
#262 = DIRECTION ( 'NONE',  ( 0.0000000000000000000, 1.000000000000000000, 0.0000000000000000000 ) ) ;
#263 = ADVANCED_FACE ( 'NONE', ( #228, #278 ), #219, .T. ) ;
#264 = CARTESIAN_POINT ( 'NONE',  ( 6.982962677686266711E-14, -2.602085213965210642E-15, 20.00000000000000000 ) ) ;
#265 = APPROVAL_PERSON_ORGANIZATION ( #53, #208, #175 ) ;
#266 = FACE_OUTER_BOUND ( 'NONE', #114, .T. ) ;
#267 = CARTESIAN_POINT ( 'NONE',  ( 0.0000000000000000000, 0.0000000000000000000, 0.0000000000000000000 ) ) ;
#268 = FACE_OUTER_BOUND ( 'NONE', #117, .T. ) ;
#269 = CYLINDRICAL_SURFACE ( 'NONE', #189, 1.499999999999999112 ) ;
#270 = CIRCLE ( 'NONE', #49, 1.499999999999996669 ) ;
#271 = APPROVAL_PERSON_ORGANIZATION ( #32, #36, #104 ) ;
#272 = DIRECTION ( 'NONE',  ( 4.275831445896958607E-31, 1.000000000000000000, 1.224646799147353207E-16 ) ) ;
#273 = FACE_OUTER_BOUND ( 'NONE', #39, .T. ) ;
#274 = ADVANCED_FACE ( 'NONE', ( #185, #160 ), #140, .T. ) ;
#275 = CARTESIAN_POINT ( 'NONE',  ( 0.0000000000000000000, 0.0000000000000000000, 0.0000000000000000000 ) ) ;
#276 = EDGE_LOOP ( 'NONE', ( #24 ) ) ;
#277 = CARTESIAN_POINT ( 'NONE',  ( 3.584309283006851287E-14, 1.024999999999997469, 10.26586979896182328 ) ) ;
#278 = FACE_BOUND ( 'NONE', #108, .T. ) ;
#279 = CONICAL_SURFACE ( 'NONE', #197, 1.200000000000001732, 0.7853981633974453924 ) ;
#280 = LOCAL_TIME ( 7, 44, 54.00000000000000000, #128 ) ;
#281 = FACE_OUTER_BOUND ( 'NONE', #202, .T. ) ;
#282 = ORIENTED_EDGE ( 'NONE', *, *, #245, .T. ) ;
#283 = VERTEX_POINT ( 'NONE', #73 ) ;
#284 = EDGE_LOOP ( 'NONE', ( #206 ) ) ;
#285 = MECHANICAL_CONTEXT ( 'NONE', #144, 'mechanical' ) ;
#286 = CARTESIAN_POINT ( 'NONE',  ( 3.491481338843133355E-14, -1.224646799147353256E-15, 10.00000000000000000 ) ) ;
#287 = VERTEX_POINT ( 'NONE', #68 ) ;
#288 = CIRCLE ( 'NONE', #94, 1.178499999999994996 ) ;
#289 = CALENDAR_DATE ( 2021, 30, 11 ) ;
#290 = DIRECTION ( 'NONE',  ( 0.0000000000000000000, 1.000000000000000000, 0.0000000000000000000 ) ) ;
#291 = SECURITY_CLASSIFICATION_LEVEL ( 'unclassified' ) ;
#292 = TOROIDAL_SURFACE ( 'NONE', #254, 3.024999999999999911, 2.000000000000000000 ) ;
#293 = ORIENTED_EDGE ( 'NONE', *, *, #3, .F. ) ;
#294 = APPROVAL_STATUS ( 'not_yet_approved' ) ;
#295 = DIRECTION ( 'NONE',  ( 0.0000000000000000000, 1.000000000000000000, 0.0000000000000000000 ) ) ;
#296 = AXIS2_PLACEMENT_3D ( 'NONE', #286, #98, #116 ) ;
#297 = EDGE_CURVE ( 'NONE', #287, #287, #270, .T. ) ;
#298 = DIRECTION ( 'NONE',  ( -3.491481338843133355E-15, 1.224646799147353207E-16, -1.000000000000000000 ) ) ;
#299 = PRODUCT ( '200130', '200130', '', ( #285 ) ) ;
#300 = CIRCLE ( 'NONE', #296, 1.178499999999994996 ) ;
#301 = ORIENTED_EDGE ( 'NONE', *, *, #237, .T. ) ;
#302 =( LENGTH_UNIT ( ) NAMED_UNIT ( * ) SI_UNIT ( .MILLI., .METRE. ) );
#303 = EDGE_LOOP ( 'NONE', ( #135 ) ) ;
ENDSEC;
END-ISO-10303-21;
