ISO-10303-21;
HEADER;
FILE_DESCRIPTION (( 'STEP AP203' ),
    '1' );
FILE_NAME ('200129.step',
    '2021-11-30T06:44:53',
    ( '' ),
    ( '' ),
    'SwSTEP 2.0',
    'SolidWorks 2019',
    '' );
FILE_SCHEMA (( 'CONFIG_CONTROL_DESIGN' ));
ENDSEC;

DATA;
#1 =( LENGTH_UNIT ( ) NAMED_UNIT ( * ) SI_UNIT ( .MILLI., .METRE. ) );
#2 = CONICAL_SURFACE ( 'NONE', #48, 1.049999999999999378, 0.5235987755982941527 ) ;
#3 = DIRECTION ( 'NONE',  ( -4.275831445896958607E-31, -1.000000000000000000, -1.224646799147353207E-16 ) ) ;
#4 = CARTESIAN_POINT ( 'NONE',  ( 1.735266225405037467E-13, 1.499999999999995559, 49.70000000000000284 ) ) ;
#5 = EDGE_CURVE ( 'NONE', #124, #124, #11, .T. ) ;
#6 = DIRECTION ( 'NONE',  ( 0.0000000000000000000, 0.0000000000000000000, 1.000000000000000000 ) ) ;
#7 = CONICAL_SURFACE ( 'NONE', #258, 1.203499999999994019, 0.5235987755982927094 ) ;
#8 = APPROVAL_ROLE ( '' ) ;
#9 = EDGE_CURVE ( 'NONE', #169, #169, #192, .T. ) ;
#10 = AXIS2_PLACEMENT_3D ( 'NONE', #27, #100, #181 ) ;
#11 = CIRCLE ( 'NONE', #296, 1.499999999999996669 ) ;
#12 = PRODUCT_DEFINITION_FORMATION_WITH_SPECIFIED_SOURCE ( 'ANY', '', #185, .NOT_KNOWN. ) ;
#13 = EDGE_LOOP ( 'NONE', ( #17 ) ) ;
#14 = MANIFOLD_SOLID_BREP ( 'Corps-Déplacer/Copier1[2]', #107 ) ;
#15 = ORIENTED_EDGE ( 'NONE', *, *, #190, .T. ) ;
#16 = PRODUCT_RELATED_PRODUCT_CATEGORY ( 'detail', '', ( #185 ) ) ;
#17 = ORIENTED_EDGE ( 'NONE', *, *, #5, .F. ) ;
#18 = ORIENTED_EDGE ( 'NONE', *, *, #190, .F. ) ;
#19 = AXIS2_PLACEMENT_3D ( 'NONE', #245, #94, #50 ) ;
#20 = CC_DESIGN_APPROVAL ( #125, ( #180 ) ) ;
#21 = EDGE_LOOP ( 'NONE', ( #44 ) ) ;
#22 = APPLICATION_PROTOCOL_DEFINITION ( 'international standard', 'config_control_design', 1994, #104 ) ;
#23 = CARTESIAN_POINT ( 'NONE',  ( 7.935108543721710483E-14, -2.783261411380039116E-15, 22.72705414587989026 ) ) ;
#24 = DATE_TIME_ROLE ( 'classification_date' ) ;
#25 = FACE_OUTER_BOUND ( 'NONE', #260, .T. ) ;
#26 = CARTESIAN_POINT ( 'NONE',  ( 7.104220552055901835E-14, 1.080384493975578453, 20.34729635533384595 ) ) ;
#27 = CARTESIAN_POINT ( 'NONE',  ( -6.421535862445616627E-31, 2.252371579955130267E-32, -1.839200969229102553E-16 ) ) ;
#28 = PLANE ( 'NONE',  #65 ) ;
#29 = FACE_OUTER_BOUND ( 'NONE', #111, .T. ) ;
#30 = DIRECTION ( 'NONE',  ( 3.491481338843133355E-15, -1.224646799147353207E-16, 1.000000000000000000 ) ) ;
#31 = DATE_AND_TIME ( #162, #78 ) ;
#32 = DATE_AND_TIME ( #214, #148 ) ;
#33 = VERTEX_POINT ( 'NONE', #4 ) ;
#34 = ORGANIZATION ( 'UNSPECIFIED', 'UNSPECIFIED', '' ) ;
#35 = APPROVAL ( #96, 'UNSPECIFIED' ) ;
#36 = FACE_OUTER_BOUND ( 'NONE', #21, .T. ) ;
#37 = UNCERTAINTY_MEASURE_WITH_UNIT (LENGTH_MEASURE( 1.000000000000000082E-05 ), #1, 'distance_accuracy_value', 'NONE');
#38 = SHAPE_DEFINITION_REPRESENTATION ( #75, #39 ) ;
#39 = ADVANCED_BREP_SHAPE_REPRESENTATION ( '200129', ( #115, #14, #290 ), #127 ) ;
#40 = CONICAL_SURFACE ( 'NONE', #112, 1.499999999999996669, 0.1745329251994265085 ) ;
#41 = AXIS2_PLACEMENT_3D ( 'NONE', #168, #72, #73 ) ;
#42 = CC_DESIGN_PERSON_AND_ORGANIZATION_ASSIGNMENT ( #99, #271, ( #85 ) ) ;
#43 = ORIENTED_EDGE ( 'NONE', *, *, #194, .T. ) ;
#44 = ORIENTED_EDGE ( 'NONE', *, *, #58, .F. ) ;
#45 = EDGE_LOOP ( 'NONE', ( #43 ) ) ;
#46 = EDGE_CURVE ( 'NONE', #281, #281, #178, .T. ) ;
#47 = CARTESIAN_POINT ( 'NONE',  ( 0.0000000000000000000, 0.0000000000000000000, 0.0000000000000000000 ) ) ;
#48 = AXIS2_PLACEMENT_3D ( 'NONE', #157, #291, #121 ) ;
#49 = EDGE_LOOP ( 'NONE', ( #263 ) ) ;
#50 = DIRECTION ( 'NONE',  ( 0.0000000000000000000, 1.000000000000000000, 0.0000000000000000000 ) ) ;
#51 = DIRECTION ( 'NONE',  ( -3.491481338843133355E-15, 1.224646799147353207E-16, -1.000000000000000000 ) ) ;
#52 = PERSON_AND_ORGANIZATION ( #83, #34 ) ;
#53 = DIRECTION ( 'NONE',  ( 0.0000000000000000000, 1.000000000000000000, 0.0000000000000000000 ) ) ;
#54 = DIRECTION ( 'NONE',  ( 0.0000000000000000000, 1.000000000000000000, 0.0000000000000000000 ) ) ;
#55 = FACE_BOUND ( 'NONE', #137, .T. ) ;
#56 = DIRECTION ( 'NONE',  ( 0.0000000000000000000, -1.000000000000000000, 0.0000000000000000000 ) ) ;
#57 = DIRECTION ( 'NONE',  ( 4.275831445896958607E-31, 1.000000000000000000, 1.224646799147353207E-16 ) ) ;
#58 = EDGE_CURVE ( 'NONE', #230, #230, #242, .T. ) ;
#59 = VERTEX_POINT ( 'NONE', #299 ) ;
#60 = LOCAL_TIME ( 7, 44, 53.00000000000000000, #207 ) ;
#61 = CALENDAR_DATE ( 2021, 30, 11 ) ;
#62 = CIRCLE ( 'NONE', #154, 1.200000000000001732 ) ;
#63 = COORDINATED_UNIVERSAL_TIME_OFFSET ( 1, 0, .AHEAD. ) ;
#64 = PERSON_AND_ORGANIZATION ( #83, #34 ) ;
#65 = AXIS2_PLACEMENT_3D ( 'NONE', #189, #210, #3 ) ;
#66 = ORIENTED_EDGE ( 'NONE', *, *, #58, .T. ) ;
#67 = ORIENTED_EDGE ( 'NONE', *, *, #5, .T. ) ;
#68 = ADVANCED_FACE ( 'NONE', ( #303, #243 ), #161, .T. ) ;
#69 = DIRECTION ( 'NONE',  ( 3.491481338843133355E-15, -1.224646799147353207E-16, 1.000000000000000000 ) ) ;
#70 = EDGE_LOOP ( 'NONE', ( #239 ) ) ;
#71 = CARTESIAN_POINT ( 'NONE',  ( 3.491481338843133355E-14, -1.224646799147353256E-15, 10.00000000000000000 ) ) ;
#72 = DIRECTION ( 'NONE',  ( -3.491481338843133355E-15, 1.224646799147353207E-16, -1.000000000000000000 ) ) ;
#73 = DIRECTION ( 'NONE',  ( 0.0000000000000000000, 1.000000000000000000, 0.0000000000000000000 ) ) ;
#74 =( NAMED_UNIT ( * ) SI_UNIT ( $, .STERADIAN. ) SOLID_ANGLE_UNIT ( ) );
#75 = PRODUCT_DEFINITION_SHAPE ( 'NONE', 'NONE',  #85 ) ;
#76 = CARTESIAN_POINT ( 'NONE',  ( 8.728703347107827472E-16, -3.061616997868381169E-17, 0.2499999999999998335 ) ) ;
#77 = AXIS2_PLACEMENT_3D ( 'NONE', #220, #295, #223 ) ;
#78 = LOCAL_TIME ( 7, 44, 53.00000000000000000, #229 ) ;
#79 = DIRECTION ( 'NONE',  ( -4.275831445896958607E-31, -1.000000000000000000, -1.224646799147353207E-16 ) ) ;
#80 = DIRECTION ( 'NONE',  ( -3.491481338843133355E-15, 1.224646799147353207E-16, -1.000000000000000000 ) ) ;
#81 = CYLINDRICAL_SURFACE ( 'NONE', #88, 1.499999999999999112 ) ;
#82 = CARTESIAN_POINT ( 'NONE',  ( 3.491481338843133355E-14, 9.024804492167674430E-33, 10.00000000000000000 ) ) ;
#83 = PERSON ( 'UNSPECIFIED', 'UNSPECIFIED', 'UNSPECIFIED', ('UNSPECIFIED'), ('UNSPECIFIED'), ('UNSPECIFIED') ) ;
#84 = ORIENTED_EDGE ( 'NONE', *, *, #140, .T. ) ;
#85 = PRODUCT_DEFINITION ( 'UNKNOWN', '', #12, #126 ) ;
#86 = APPROVAL_DATE_TIME ( #278, #197 ) ;
#87 = ORIENTED_EDGE ( 'NONE', *, *, #194, .F. ) ;
#88 = AXIS2_PLACEMENT_3D ( 'NONE', #106, #80, #175 ) ;
#89 = AXIS2_PLACEMENT_3D ( 'NONE', #47, #250, #57 ) ;
#90 = VERTEX_POINT ( 'NONE', #205 ) ;
#91 = ORIENTED_EDGE ( 'NONE', *, *, #266, .T. ) ;
#92 = MECHANICAL_CONTEXT ( 'NONE', #193, 'mechanical' ) ;
#93 = PERSON_AND_ORGANIZATION_ROLE ( 'design_supplier' ) ;
#94 = DIRECTION ( 'NONE',  ( -3.491481338843133355E-15, 1.224646799147353207E-16, -1.000000000000000000 ) ) ;
#95 = CARTESIAN_POINT ( 'NONE',  ( 7.935108543721710483E-14, -2.783261411380039116E-15, 22.72705414587989026 ) ) ;
#96 = APPROVAL_STATUS ( 'not_yet_approved' ) ;
#97 = ADVANCED_FACE ( 'NONE', ( #249 ), #142, .F. ) ;
#98 = DIRECTION ( 'NONE',  ( 4.275831445896958607E-31, 1.000000000000000000, 1.224646799147353207E-16 ) ) ;
#99 = PERSON_AND_ORGANIZATION ( #83, #34 ) ;
#100 = DIRECTION ( 'NONE',  ( -3.491481338843133355E-15, 1.224646799147353207E-16, -1.000000000000000000 ) ) ;
#101 = DATE_AND_TIME ( #302, #60 ) ;
#102 = DIRECTION ( 'NONE',  ( 0.0000000000000000000, 1.000000000000000000, 0.0000000000000000000 ) ) ;
#103 = AXIS2_PLACEMENT_3D ( 'NONE', #228, #51, #139 ) ;
#104 = APPLICATION_CONTEXT ( 'configuration controlled 3d designs of mechanical parts and assemblies' ) ;
#105 = FACE_OUTER_BOUND ( 'NONE', #13, .T. ) ;
#106 = CARTESIAN_POINT ( 'NONE',  ( 0.0000000000000000000, 0.0000000000000000000, 0.0000000000000000000 ) ) ;
#107 = CLOSED_SHELL ( 'NONE', ( #218, #227, #294, #244 ) ) ;
#108 = APPROVAL_STATUS ( 'not_yet_approved' ) ;
#109 = CC_DESIGN_APPROVAL ( #35, ( #85 ) ) ;
#110 = ADVANCED_FACE ( 'NONE', ( #187, #202 ), #40, .T. ) ;
#111 = EDGE_LOOP ( 'NONE', ( #15 ) ) ;
#112 = AXIS2_PLACEMENT_3D ( 'NONE', #23, #30, #56 ) ;
#113 = ORIENTED_EDGE ( 'NONE', *, *, #213, .F. ) ;
#114 = DIRECTION ( 'NONE',  ( 0.0000000000000000000, 1.000000000000000000, 0.0000000000000000000 ) ) ;
#115 = MANIFOLD_SOLID_BREP ( 'Corps-Déplacer/Copier1[1]', #275 ) ;
#116 = CIRCLE ( 'NONE', #231, 1.203499999999995351 ) ;
#117 = DIRECTION ( 'NONE',  ( 0.0000000000000000000, 1.000000000000000000, 0.0000000000000000000 ) ) ;
#118 = CARTESIAN_POINT ( 'NONE',  ( 3.491481338843133355E-14, 1.203499999999994019, 10.00000000000000000 ) ) ;
#119 = CARTESIAN_POINT ( 'NONE',  ( 7.104220552055901835E-14, -2.491825135286219831E-15, 20.34729635533384595 ) ) ;
#120 = DIRECTION ( 'NONE',  ( -3.491481338843133355E-15, 1.224646799147353207E-16, -1.000000000000000000 ) ) ;
#121 = DIRECTION ( 'NONE',  ( 0.0000000000000000000, 1.000000000000000000, 0.0000000000000000000 ) ) ;
#122 = APPROVAL_DATE_TIME ( #31, #35 ) ;
#123 = AXIS2_PLACEMENT_3D ( 'NONE', #264, #208, #98 ) ;
#124 = VERTEX_POINT ( 'NONE', #191 ) ;
#125 = APPROVAL ( #224, 'UNSPECIFIED' ) ;
#126 = DESIGN_CONTEXT ( 'detailed design', #104, 'design' ) ;
#127 =( GEOMETRIC_REPRESENTATION_CONTEXT ( 3 ) GLOBAL_UNCERTAINTY_ASSIGNED_CONTEXT ( ( #37 ) ) GLOBAL_UNIT_ASSIGNED_CONTEXT ( ( #1, #272, #74 ) ) REPRESENTATION_CONTEXT ( 'NONE', 'WORKASPACE' ) );
#128 = EDGE_LOOP ( 'NONE', ( #113 ) ) ;
#129 = EDGE_LOOP ( 'NONE', ( #91 ) ) ;
#130 = CC_DESIGN_DATE_AND_TIME_ASSIGNMENT ( #216, #24, ( #180 ) ) ;
#131 = SECURITY_CLASSIFICATION_LEVEL ( 'unclassified' ) ;
#132 = APPLICATION_PROTOCOL_DEFINITION ( 'international standard', 'config_control_design', 1994, #193 ) ;
#133 = EDGE_LOOP ( 'NONE', ( #158 ) ) ;
#134 = PERSON_AND_ORGANIZATION_ROLE ( 'design_owner' ) ;
#135 = CC_DESIGN_PERSON_AND_ORGANIZATION_ASSIGNMENT ( #177, #134, ( #185 ) ) ;
#136 = DIRECTION ( 'NONE',  ( -3.491481338843133355E-15, 1.224646799147353207E-16, -1.000000000000000000 ) ) ;
#137 = EDGE_LOOP ( 'NONE', ( #84 ) ) ;
#138 = DIRECTION ( 'NONE',  ( -3.491481338843133355E-15, 1.224646799147353207E-16, -1.000000000000000000 ) ) ;
#139 = DIRECTION ( 'NONE',  ( 4.275831445896958607E-31, 1.000000000000000000, 1.224646799147352961E-16 ) ) ;
#140 = EDGE_CURVE ( 'NONE', #233, #233, #203, .T. ) ;
#141 = VERTEX_POINT ( 'NONE', #209 ) ;
#142 = PLANE ( 'NONE',  #77 ) ;
#143 = CARTESIAN_POINT ( 'NONE',  ( 8.728703347107827472E-16, -3.061616997868381169E-17, 0.2499999999999998335 ) ) ;
#144 = FACE_OUTER_BOUND ( 'NONE', #201, .T. ) ;
#145 = CARTESIAN_POINT ( 'NONE',  ( -1.892735826383162232E-31, 1.059162432702589696, -5.421010862427522170E-17 ) ) ;
#146 = AXIS2_PLACEMENT_3D ( 'NONE', #143, #240, #170 ) ;
#147 = CARTESIAN_POINT ( 'NONE',  ( 0.0000000000000000000, 0.0000000000000000000, 0.0000000000000000000 ) ) ;
#148 = LOCAL_TIME ( 7, 44, 53.00000000000000000, #160 ) ;
#149 = CYLINDRICAL_SURFACE ( 'NONE', #89, 1.203499999999994685 ) ;
#150 = EDGE_CURVE ( 'NONE', #33, #33, #199, .T. ) ;
#151 = AXIS2_PLACEMENT_3D ( 'NONE', #206, #136, #293 ) ;
#152 = LOCAL_TIME ( 7, 44, 53.00000000000000000, #254 ) ;
#153 = ORIENTED_EDGE ( 'NONE', *, *, #46, .F. ) ;
#154 = AXIS2_PLACEMENT_3D ( 'NONE', #277, #204, #117 ) ;
#155 = EDGE_LOOP ( 'NONE', ( #174 ) ) ;
#156 = EDGE_LOOP ( 'NONE', ( #18 ) ) ;
#157 = CARTESIAN_POINT ( 'NONE',  ( 3.584309283006850024E-14, -1.257206458976207263E-15, 10.26586979896181973 ) ) ;
#158 = ORIENTED_EDGE ( 'NONE', *, *, #140, .F. ) ;
#159 = DIRECTION ( 'NONE',  ( 0.0000000000000000000, 1.000000000000000000, 0.0000000000000000000 ) ) ;
#160 = COORDINATED_UNIVERSAL_TIME_OFFSET ( 1, 0, .AHEAD. ) ;
#161 = CYLINDRICAL_SURFACE ( 'NONE', #103, 1.049999999999999822 ) ;
#162 = CALENDAR_DATE ( 2021, 30, 11 ) ;
#163 = ADVANCED_FACE ( 'NONE', ( #25, #144 ), #186, .F. ) ;
#164 = CARTESIAN_POINT ( 'NONE',  ( -3.210767931222808313E-31, 1.126185789977565133E-32, -9.196004846145512764E-17 ) ) ;
#165 = AXIS2_PLACEMENT_3D ( 'NONE', #119, #267, #54 ) ;
#166 = DIRECTION ( 'NONE',  ( 3.491481338843133355E-15, -1.224646799147353207E-16, 1.000000000000000000 ) ) ;
#167 = CARTESIAN_POINT ( 'NONE',  ( 3.584309283006850024E-14, 1.049999999999998046, 10.26586979896181973 ) ) ;
#168 = CARTESIAN_POINT ( 'NONE',  ( 3.491481338843133355E-14, -1.224646799147353256E-15, 10.00000000000000000 ) ) ;
#169 = VERTEX_POINT ( 'NONE', #145 ) ;
#170 = DIRECTION ( 'NONE',  ( 4.800822462120262406E-31, 1.000000000000000000, 1.351311390717295058E-16 ) ) ;
#171 = CC_DESIGN_DATE_AND_TIME_ASSIGNMENT ( #32, #211, ( #85 ) ) ;
#172 = PERSON_AND_ORGANIZATION ( #83, #34 ) ;
#173 = ORIENTED_EDGE ( 'NONE', *, *, #266, .F. ) ;
#174 = ORIENTED_EDGE ( 'NONE', *, *, #9, .T. ) ;
#175 = DIRECTION ( 'NONE',  ( 4.275831445896958607E-31, 1.000000000000000000, 1.224646799147353454E-16 ) ) ;
#176 = ORIENTED_EDGE ( 'NONE', *, *, #9, .F. ) ;
#177 = PERSON_AND_ORGANIZATION ( #83, #34 ) ;
#178 = CIRCLE ( 'NONE', #165, 1.080384493975580895 ) ;
#179 = LOCAL_TIME ( 7, 44, 53.00000000000000000, #63 ) ;
#180 = SECURITY_CLASSIFICATION ( '', '', #131 ) ;
#181 = DIRECTION ( 'NONE',  ( 4.275831445896957731E-31, 1.000000000000000000, 1.224646799147353207E-16 ) ) ;
#182 = FACE_OUTER_BOUND ( 'NONE', #155, .T. ) ;
#183 = FACE_OUTER_BOUND ( 'NONE', #129, .T. ) ;
#184 = DIRECTION ( 'NONE',  ( -4.275831445896958607E-31, -1.000000000000000000, -1.224646799147353207E-16 ) ) ;
#185 = PRODUCT ( '200129', '200129', '', ( #92 ) ) ;
#186 = TOROIDAL_SURFACE ( 'NONE', #123, 3.050000000000000711, 2.000000000000000000 ) ;
#187 = FACE_BOUND ( 'NONE', #257, .T. ) ;
#188 = CONICAL_SURFACE ( 'NONE', #234, 1.200000000000001732, 0.7853981633974453924 ) ;
#189 = CARTESIAN_POINT ( 'NONE',  ( 3.491481338843133355E-14, 9.024804492167674430E-33, 10.00000000000000000 ) ) ;
#190 = EDGE_CURVE ( 'NONE', #90, #90, #116, .T. ) ;
#191 = CARTESIAN_POINT ( 'NONE',  ( 7.935108543721710483E-14, 1.499999999999994005, 22.72705414587989026 ) ) ;
#192 = CIRCLE ( 'NONE', #10, 1.059162432702589696 ) ;
#193 = APPLICATION_CONTEXT ( 'configuration controlled 3d designs of mechanical parts and assemblies' ) ;
#194 = EDGE_CURVE ( 'NONE', #141, #141, #222, .T. ) ;
#195 = CALENDAR_DATE ( 2021, 30, 11 ) ;
#196 = EDGE_LOOP ( 'NONE', ( #198 ) ) ;
#197 = APPROVAL ( #108, 'UNSPECIFIED' ) ;
#198 = ORIENTED_EDGE ( 'NONE', *, *, #150, .F. ) ;
#199 = CIRCLE ( 'NONE', #19, 1.500000000000001554 ) ;
#200 = VERTEX_POINT ( 'NONE', #274 ) ;
#201 = EDGE_LOOP ( 'NONE', ( #292 ) ) ;
#202 = FACE_OUTER_BOUND ( 'NONE', #217, .T. ) ;
#203 = CIRCLE ( 'NONE', #151, 1.049999999999999378 ) ;
#204 = DIRECTION ( 'NONE',  ( -3.491481338843133355E-15, 1.224646799147353207E-16, -1.000000000000000000 ) ) ;
#205 = CARTESIAN_POINT ( 'NONE',  ( 3.491481338843133355E-14, 1.203499999999994019, 10.00000000000000000 ) ) ;
#206 = CARTESIAN_POINT ( 'NONE',  ( 3.584309283006850024E-14, -1.257206458976207263E-15, 10.26586979896181973 ) ) ;
#207 = COORDINATED_UNIVERSAL_TIME_OFFSET ( 1, 0, .AHEAD. ) ;
#208 = DIRECTION ( 'NONE',  ( -3.491481338843133355E-15, 1.224646799147353207E-16, -1.000000000000000000 ) ) ;
#209 = CARTESIAN_POINT ( 'NONE',  ( 6.982962677686266711E-14, 1.049999999999998046, 20.00000000000000000 ) ) ;
#210 = DIRECTION ( 'NONE',  ( 3.491481338843133355E-15, -1.224646799147353207E-16, 1.000000000000000000 ) ) ;
#211 = DATE_TIME_ROLE ( 'creation_date' ) ;
#212 = FACE_OUTER_BOUND ( 'NONE', #237, .T. ) ;
#213 = EDGE_CURVE ( 'NONE', #200, #200, #62, .T. ) ;
#214 = CALENDAR_DATE ( 2021, 30, 11 ) ;
#215 = PERSON_AND_ORGANIZATION ( #83, #34 ) ;
#216 = DATE_AND_TIME ( #195, #179 ) ;
#217 = EDGE_LOOP ( 'NONE', ( #67 ) ) ;
#218 = ADVANCED_FACE ( 'NONE', ( #182 ), #270, .F. ) ;
#219 = DIRECTION ( 'NONE',  ( -3.491481338843133355E-15, 1.224646799147353207E-16, -1.000000000000000000 ) ) ;
#220 = CARTESIAN_POINT ( 'NONE',  ( 1.745740669421566678E-13, 8.998558695971067645E-33, 50.00000000000000000 ) ) ;
#221 = FACE_OUTER_BOUND ( 'NONE', #156, .T. ) ;
#222 = CIRCLE ( 'NONE', #283, 1.050000000000000266 ) ;
#223 = DIRECTION ( 'NONE',  ( 4.275831445896958607E-31, 1.000000000000000000, 1.224646799147353207E-16 ) ) ;
#224 = APPROVAL_STATUS ( 'not_yet_approved' ) ;
#225 = FACE_OUTER_BOUND ( 'NONE', #288, .T. ) ;
#226 = FACE_OUTER_BOUND ( 'NONE', #196, .T. ) ;
#227 = ADVANCED_FACE ( 'NONE', ( #301, #183 ), #7, .T. ) ;
#228 = CARTESIAN_POINT ( 'NONE',  ( 0.0000000000000000000, 0.0000000000000000000, 0.0000000000000000000 ) ) ;
#229 = COORDINATED_UNIVERSAL_TIME_OFFSET ( 1, 0, .AHEAD. ) ;
#230 = VERTEX_POINT ( 'NONE', #118 ) ;
#231 = AXIS2_PLACEMENT_3D ( 'NONE', #71, #120, #159 ) ;
#232 = APPROVAL_PERSON_ORGANIZATION ( #289, #35, #268 ) ;
#233 = VERTEX_POINT ( 'NONE', #167 ) ;
#234 = AXIS2_PLACEMENT_3D ( 'NONE', #251, #138, #53 ) ;
#235 = ADVANCED_FACE ( 'NONE', ( #225 ), #28, .F. ) ;
#236 = EDGE_LOOP ( 'NONE', ( #176 ) ) ;
#237 = EDGE_LOOP ( 'NONE', ( #173 ) ) ;
#238 = ADVANCED_FACE ( 'NONE', ( #105, #280 ), #81, .T. ) ;
#239 = ORIENTED_EDGE ( 'NONE', *, *, #150, .T. ) ;
#240 = DIRECTION ( 'NONE',  ( -3.491481338843133355E-15, 1.224646799147353207E-16, -1.000000000000000000 ) ) ;
#241 = DIRECTION ( 'NONE',  ( 1.000000000000000000, 0.0000000000000000000, 0.0000000000000000000 ) ) ;
#242 = CIRCLE ( 'NONE', #41, 1.203499999999995351 ) ;
#243 = FACE_OUTER_BOUND ( 'NONE', #45, .T. ) ;
#244 = ADVANCED_FACE ( 'NONE', ( #221 ), #262, .T. ) ;
#245 = CARTESIAN_POINT ( 'NONE',  ( 1.735266225405037467E-13, -6.086494591762345225E-15, 49.70000000000000284 ) ) ;
#246 = DIRECTION ( 'NONE',  ( 3.491481338843133355E-15, -1.224646799147353207E-16, 1.000000000000000000 ) ) ;
#247 = AXIS2_PLACEMENT_3D ( 'NONE', #82, #69, #184 ) ;
#248 = DIRECTION ( 'NONE',  ( -4.800822462120262406E-31, -1.000000000000000000, -1.351311390717295058E-16 ) ) ;
#249 = FACE_OUTER_BOUND ( 'NONE', #128, .T. ) ;
#250 = DIRECTION ( 'NONE',  ( -3.491481338843133355E-15, 1.224646799147353207E-16, -1.000000000000000000 ) ) ;
#251 = CARTESIAN_POINT ( 'NONE',  ( 1.745740669421566678E-13, -6.123233995736766085E-15, 50.00000000000000000 ) ) ;
#252 = CC_DESIGN_APPROVAL ( #197, ( #12 ) ) ;
#253 = APPROVAL_DATE_TIME ( #101, #125 ) ;
#254 = COORDINATED_UNIVERSAL_TIME_OFFSET ( 1, 0, .AHEAD. ) ;
#255 = PERSON_AND_ORGANIZATION_ROLE ( 'creator' ) ;
#256 = ADVANCED_FACE ( 'NONE', ( #36, #55 ), #2, .T. ) ;
#257 = EDGE_LOOP ( 'NONE', ( #153 ) ) ;
#258 = AXIS2_PLACEMENT_3D ( 'NONE', #76, #166, #248 ) ;
#259 = APPROVAL_PERSON_ORGANIZATION ( #172, #197, #8 ) ;
#260 = EDGE_LOOP ( 'NONE', ( #87 ) ) ;
#261 = PERSON_AND_ORGANIZATION ( #83, #34 ) ;
#262 = PLANE ( 'NONE',  #247 ) ;
#263 = ORIENTED_EDGE ( 'NONE', *, *, #213, .T. ) ;
#264 = CARTESIAN_POINT ( 'NONE',  ( 6.982962677686266711E-14, -2.602085213965210642E-15, 20.00000000000000000 ) ) ;
#265 = AXIS2_PLACEMENT_3D ( 'NONE', #164, #246, #79 ) ;
#266 = EDGE_CURVE ( 'NONE', #59, #59, #285, .T. ) ;
#267 = DIRECTION ( 'NONE',  ( -3.491481338843133355E-15, 1.224646799147353207E-16, -1.000000000000000000 ) ) ;
#268 = APPROVAL_ROLE ( '' ) ;
#269 = APPROVAL_ROLE ( '' ) ;
#270 = PLANE ( 'NONE',  #265 ) ;
#271 = PERSON_AND_ORGANIZATION_ROLE ( 'creator' ) ;
#272 =( NAMED_UNIT ( * ) PLANE_ANGLE_UNIT ( ) SI_UNIT ( $, .RADIAN. ) );
#273 = CARTESIAN_POINT ( 'NONE',  ( 6.982962677686266711E-14, -2.449293598294706513E-15, 20.00000000000000000 ) ) ;
#274 = CARTESIAN_POINT ( 'NONE',  ( 1.745740669421566678E-13, 1.199999999999995515, 50.00000000000000000 ) ) ;
#275 = CLOSED_SHELL ( 'NONE', ( #235, #256, #68, #163, #110, #238, #300, #97 ) ) ;
#276 = CC_DESIGN_SECURITY_CLASSIFICATION ( #180, ( #12 ) ) ;
#277 = CARTESIAN_POINT ( 'NONE',  ( 1.745740669421566678E-13, -6.123233995736766085E-15, 50.00000000000000000 ) ) ;
#278 = DATE_AND_TIME ( #61, #152 ) ;
#279 = FACE_BOUND ( 'NONE', #49, .T. ) ;
#280 = FACE_OUTER_BOUND ( 'NONE', #70, .T. ) ;
#281 = VERTEX_POINT ( 'NONE', #26 ) ;
#282 = CC_DESIGN_PERSON_AND_ORGANIZATION_ASSIGNMENT ( #261, #255, ( #12 ) ) ;
#283 = AXIS2_PLACEMENT_3D ( 'NONE', #273, #219, #114 ) ;
#284 = PERSON_AND_ORGANIZATION_ROLE ( 'classification_officer' ) ;
#285 = CIRCLE ( 'NONE', #146, 1.203499999999994019 ) ;
#286 = CC_DESIGN_PERSON_AND_ORGANIZATION_ASSIGNMENT ( #215, #284, ( #180 ) ) ;
#287 = CC_DESIGN_PERSON_AND_ORGANIZATION_ASSIGNMENT ( #64, #93, ( #12 ) ) ;
#288 = EDGE_LOOP ( 'NONE', ( #66 ) ) ;
#289 = PERSON_AND_ORGANIZATION ( #83, #34 ) ;
#290 = AXIS2_PLACEMENT_3D ( 'NONE', #147, #6, #241 ) ;
#291 = DIRECTION ( 'NONE',  ( -3.491481338843133355E-15, 1.224646799147353207E-16, -1.000000000000000000 ) ) ;
#292 = ORIENTED_EDGE ( 'NONE', *, *, #46, .T. ) ;
#293 = DIRECTION ( 'NONE',  ( 0.0000000000000000000, 1.000000000000000000, 0.0000000000000000000 ) ) ;
#294 = ADVANCED_FACE ( 'NONE', ( #212, #29 ), #149, .T. ) ;
#295 = DIRECTION ( 'NONE',  ( -3.491481338843133355E-15, 1.224646799147353207E-16, -1.000000000000000000 ) ) ;
#296 = AXIS2_PLACEMENT_3D ( 'NONE', #95, #298, #102 ) ;
#297 = APPROVAL_PERSON_ORGANIZATION ( #52, #125, #269 ) ;
#298 = DIRECTION ( 'NONE',  ( -3.491481338843133355E-15, 1.224646799147353207E-16, -1.000000000000000000 ) ) ;
#299 = CARTESIAN_POINT ( 'NONE',  ( 8.728703347107833388E-16, 1.203499999999994019, 0.2500000000000000000 ) ) ;
#300 = ADVANCED_FACE ( 'NONE', ( #226, #279 ), #188, .T. ) ;
#301 = FACE_BOUND ( 'NONE', #236, .T. ) ;
#302 = CALENDAR_DATE ( 2021, 30, 11 ) ;
#303 = FACE_OUTER_BOUND ( 'NONE', #133, .T. ) ;
ENDSEC;
END-ISO-10303-21;
