ISO-10303-21;
HEADER;
FILE_DESCRIPTION (( 'STEP AP203' ),
    '1' );
FILE_NAME ('200127.step',
    '2021-11-30T08:32:36',
    ( '' ),
    ( '' ),
    'SwSTEP 2.0',
    'SolidWorks 2019',
    '' );
FILE_SCHEMA (( 'CONFIG_CONTROL_DESIGN' ));
ENDSEC;

DATA;
#1 = PLANE ( 'NONE',  #176 ) ;
#2 = CONICAL_SURFACE ( 'NONE', #47, 1.200000000000001732, 0.7853981633974453924 ) ;
#3 = DIRECTION ( 'NONE',  ( 3.491481338843133355E-15, -1.224646799147353207E-16, 1.000000000000000000 ) ) ;
#4 = EDGE_LOOP ( 'NONE', ( #297 ) ) ;
#5 = PERSON_AND_ORGANIZATION ( #104, #96 ) ;
#6 = CARTESIAN_POINT ( 'NONE',  ( 5.935518276033326704E-14, 0.7749999999999979128, 17.00000000000000000 ) ) ;
#7 = EDGE_LOOP ( 'NONE', ( #224 ) ) ;
#8 = AXIS2_PLACEMENT_3D ( 'NONE', #126, #183, #54 ) ;
#9 = FACE_OUTER_BOUND ( 'NONE', #103, .T. ) ;
#10 = DIRECTION ( 'NONE',  ( -3.491481338843133355E-15, 1.224646799147353207E-16, -1.000000000000000000 ) ) ;
#11 = EDGE_CURVE ( 'NONE', #225, #225, #56, .T. ) ;
#12 = DIRECTION ( 'NONE',  ( 4.275831445896958607E-31, 1.000000000000000000, 1.224646799147353207E-16 ) ) ;
#13 = AXIS2_PLACEMENT_3D ( 'NONE', #80, #292, #12 ) ;
#14 = DIRECTION ( 'NONE',  ( -3.491481338843133355E-15, 1.224646799147353207E-16, -1.000000000000000000 ) ) ;
#15 = COORDINATED_UNIVERSAL_TIME_OFFSET ( 1, 0, .AHEAD. ) ;
#16 = FACE_OUTER_BOUND ( 'NONE', #230, .T. ) ;
#17 = DIRECTION ( 'NONE',  ( -4.275831445896958607E-31, -1.000000000000000000, -1.224646799147353207E-16 ) ) ;
#18 = FACE_BOUND ( 'NONE', #102, .T. ) ;
#19 = DATE_AND_TIME ( #243, #113 ) ;
#20 = FACE_BOUND ( 'NONE', #232, .T. ) ;
#21 = EDGE_CURVE ( 'NONE', #142, #142, #105, .T. ) ;
#22 = CIRCLE ( 'NONE', #291, 1.500000000000001554 ) ;
#23 = CARTESIAN_POINT ( 'NONE',  ( 7.432196444682972937E-14, 1.499999999999994005, 21.28665664627482812 ) ) ;
#24 = CARTESIAN_POINT ( 'NONE',  ( 1.735266225405037467E-13, 1.499999999999995559, 49.70000000000000284 ) ) ;
#25 = VERTEX_POINT ( 'NONE', #23 ) ;
#26 = CIRCLE ( 'NONE', #246, 0.7750000000000009104 ) ;
#27 = DIRECTION ( 'NONE',  ( 0.0000000000000000000, 1.000000000000000000, 0.0000000000000000000 ) ) ;
#28 = CC_DESIGN_APPROVAL ( #42, ( #70 ) ) ;
#29 = DIRECTION ( 'NONE',  ( -3.491481338843133355E-15, 1.224646799147353207E-16, -1.000000000000000000 ) ) ;
#30 = PERSON_AND_ORGANIZATION ( #104, #96 ) ;
#31 = EDGE_CURVE ( 'NONE', #245, #245, #98, .T. ) ;
#32 = DIRECTION ( 'NONE',  ( 3.491481338843133355E-15, -1.224646799147353207E-16, 1.000000000000000000 ) ) ;
#33 = COORDINATED_UNIVERSAL_TIME_OFFSET ( 1, 0, .AHEAD. ) ;
#34 = EDGE_LOOP ( 'NONE', ( #46 ) ) ;
#35 = DIRECTION ( 'NONE',  ( 0.0000000000000000000, 1.000000000000000000, 0.0000000000000000000 ) ) ;
#36 = CALENDAR_DATE ( 2021, 30, 11 ) ;
#37 = FACE_OUTER_BOUND ( 'NONE', #249, .T. ) ;
#38 = MECHANICAL_CONTEXT ( 'NONE', #75, 'mechanical' ) ;
#39 = CC_DESIGN_PERSON_AND_ORGANIZATION_ASSIGNMENT ( #157, #184, ( #70 ) ) ;
#40 = DIRECTION ( 'NONE',  ( 4.275831445896958607E-31, 1.000000000000000000, 1.224646799147353454E-16 ) ) ;
#41 = FACE_OUTER_BOUND ( 'NONE', #149, .T. ) ;
#42 = APPROVAL ( #236, 'UNSPECIFIED' ) ;
#43 = CARTESIAN_POINT ( 'NONE',  ( 2.506627765991136237E-14, 0.7750000000000001332, 7.179267258583377220 ) ) ;
#44 = VERTEX_POINT ( 'NONE', #197 ) ;
#45 = EDGE_LOOP ( 'NONE', ( #177 ) ) ;
#46 = ORIENTED_EDGE ( 'NONE', *, *, #120, .F. ) ;
#47 = AXIS2_PLACEMENT_3D ( 'NONE', #168, #216, #288 ) ;
#48 = EDGE_LOOP ( 'NONE', ( #201 ) ) ;
#49 = ORIENTED_EDGE ( 'NONE', *, *, #123, .F. ) ;
#50 = CARTESIAN_POINT ( 'NONE',  ( 7.432196444682972937E-14, -2.606863592640920205E-15, 21.28665664627482812 ) ) ;
#51 = DIRECTION ( 'NONE',  ( 4.275831445896958607E-31, 1.000000000000000000, 1.224646799147352961E-16 ) ) ;
#52 = DIRECTION ( 'NONE',  ( -3.491481338843133355E-15, 1.224646799147353207E-16, -1.000000000000000000 ) ) ;
#53 = DATE_AND_TIME ( #108, #63 ) ;
#54 = DIRECTION ( 'NONE',  ( 4.384587238217958046E-31, 1.000000000000000000, 1.234151590763239252E-16 ) ) ;
#55 = DIRECTION ( 'NONE',  ( -3.491481338843133355E-15, 1.224646799147353207E-16, -1.000000000000000000 ) ) ;
#56 = CIRCLE ( 'NONE', #244, 0.7750000000000000222 ) ;
#57 = CIRCLE ( 'NONE', #160, 0.8784999999999999476 ) ;
#58 = CARTESIAN_POINT ( 'NONE',  ( 2.444036937190193349E-14, -8.572527594031473190E-16, 7.000000000000000000 ) ) ;
#59 = ADVANCED_FACE ( 'NONE', ( #84, #9 ), #185, .T. ) ;
#60 = MANIFOLD_SOLID_BREP ( 'Corps-Déplacer/Copier1[2]', #250 ) ;
#61 = COORDINATED_UNIVERSAL_TIME_OFFSET ( 1, 0, .AHEAD. ) ;
#62 = CYLINDRICAL_SURFACE ( 'NONE', #118, 1.499999999999999112 ) ;
#63 = LOCAL_TIME ( 9, 32, 36.00000000000000000, #33 ) ;
#64 = CARTESIAN_POINT ( 'NONE',  ( 2.444036937190193349E-14, 6.587694845342195502E-33, 7.000000000000000000 ) ) ;
#65 = CC_DESIGN_PERSON_AND_ORGANIZATION_ASSIGNMENT ( #5, #253, ( #178 ) ) ;
#66 = CARTESIAN_POINT ( 'NONE',  ( 2.506627765991136237E-14, -8.792066668447526579E-16, 7.179267258583377220 ) ) ;
#67 =( NAMED_UNIT ( * ) PLANE_ANGLE_UNIT ( ) SI_UNIT ( $, .RADIAN. ) );
#68 = EDGE_LOOP ( 'NONE', ( #49 ) ) ;
#69 = CLOSED_SHELL ( 'NONE', ( #272, #255, #229, #226, #175, #268, #222, #219 ) ) ;
#70 = PRODUCT_DEFINITION_FORMATION_WITH_SPECIFIED_SOURCE ( 'ANY', '', #178, .NOT_KNOWN. ) ;
#71 = CARTESIAN_POINT ( 'NONE',  ( 4.276423536147513034E-47, 0.7341624327025948471, 0.0000000000000000000 ) ) ;
#72 = EDGE_CURVE ( 'NONE', #25, #25, #143, .T. ) ;
#73 = APPROVAL_PERSON_ORGANIZATION ( #30, #263, #162 ) ;
#74 = FACE_OUTER_BOUND ( 'NONE', #150, .T. ) ;
#75 = APPLICATION_CONTEXT ( 'configuration controlled 3d designs of mechanical parts and assemblies' ) ;
#76 = CARTESIAN_POINT ( 'NONE',  ( 1.745740669421566678E-13, -6.123233995736766085E-15, 50.00000000000000000 ) ) ;
#77 = APPROVAL_ROLE ( '' ) ;
#78 = AXIS2_PLACEMENT_3D ( 'NONE', #233, #235, #51 ) ;
#79 = APPROVAL_PERSON_ORGANIZATION ( #298, #42, #77 ) ;
#80 = CARTESIAN_POINT ( 'NONE',  ( 0.0000000000000000000, 0.0000000000000000000, 0.0000000000000000000 ) ) ;
#81 = EDGE_CURVE ( 'NONE', #266, #266, #186, .T. ) ;
#82 = CARTESIAN_POINT ( 'NONE',  ( 2.444036937190193349E-14, -8.572527594031473190E-16, 7.000000000000000000 ) ) ;
#83 = APPROVAL_DATE_TIME ( #53, #42 ) ;
#84 = FACE_OUTER_BOUND ( 'NONE', #68, .T. ) ;
#85 = DIRECTION ( 'NONE',  ( 4.275831445896958607E-31, 1.000000000000000000, 1.224646799147353207E-16 ) ) ;
#86 =( GEOMETRIC_REPRESENTATION_CONTEXT ( 3 ) GLOBAL_UNCERTAINTY_ASSIGNED_CONTEXT ( ( #252 ) ) GLOBAL_UNIT_ASSIGNED_CONTEXT ( ( #223, #67, #220 ) ) REPRESENTATION_CONTEXT ( 'NONE', 'WORKASPACE' ) );
#87 = FACE_OUTER_BOUND ( 'NONE', #101, .T. ) ;
#88 = CALENDAR_DATE ( 2021, 30, 11 ) ;
#89 = DIRECTION ( 'NONE',  ( 3.491481338843133355E-15, -1.224646799147353207E-16, 1.000000000000000000 ) ) ;
#90 = ADVANCED_BREP_SHAPE_REPRESENTATION ( '200127', ( #171, #60, #148 ), #86 ) ;
#91 = PLANE ( 'NONE',  #202 ) ;
#92 = FACE_OUTER_BOUND ( 'NONE', #34, .T. ) ;
#93 = SHAPE_DEFINITION_REPRESENTATION ( #124, #90 ) ;
#94 = APPLICATION_CONTEXT ( 'configuration controlled 3d designs of mechanical parts and assemblies' ) ;
#95 = CC_DESIGN_PERSON_AND_ORGANIZATION_ASSIGNMENT ( #294, #210, ( #279 ) ) ;
#96 = ORGANIZATION ( 'UNSPECIFIED', 'UNSPECIFIED', '' ) ;
#97 = CC_DESIGN_PERSON_AND_ORGANIZATION_ASSIGNMENT ( #109, #212, ( #70 ) ) ;
#98 = CIRCLE ( 'NONE', #261, 1.200000000000001732 ) ;
#99 = CONICAL_SURFACE ( 'NONE', #100, 1.499999999999996669, 0.1745329251994260089 ) ;
#100 = AXIS2_PLACEMENT_3D ( 'NONE', #155, #32, #237 ) ;
#101 = EDGE_LOOP ( 'NONE', ( #271 ) ) ;
#102 = EDGE_LOOP ( 'NONE', ( #125 ) ) ;
#103 = EDGE_LOOP ( 'NONE', ( #254 ) ) ;
#104 = PERSON ( 'UNSPECIFIED', 'UNSPECIFIED', 'UNSPECIFIED', ('UNSPECIFIED'), ('UNSPECIFIED'), ('UNSPECIFIED') ) ;
#105 = CIRCLE ( 'NONE', #78, 0.7341624327025948471 ) ;
#106 = CIRCLE ( 'NONE', #8, 0.8784999999999990594 ) ;
#107 = DIRECTION ( 'NONE',  ( -3.491481338843133355E-15, 1.224646799147353207E-16, -1.000000000000000000 ) ) ;
#108 = CALENDAR_DATE ( 2021, 30, 11 ) ;
#109 = PERSON_AND_ORGANIZATION ( #104, #96 ) ;
#110 = CARTESIAN_POINT ( 'NONE',  ( 8.728703347107829444E-16, -3.061616997868381785E-17, 0.2499999999999998890 ) ) ;
#111 = FACE_BOUND ( 'NONE', #4, .T. ) ;
#112 = AXIS2_PLACEMENT_3D ( 'NONE', #276, #107, #161 ) ;
#113 = LOCAL_TIME ( 9, 32, 36.00000000000000000, #167 ) ;
#114 = DIRECTION ( 'NONE',  ( -3.491481338843133355E-15, 1.224646799147353207E-16, -1.000000000000000000 ) ) ;
#115 = FACE_OUTER_BOUND ( 'NONE', #206, .T. ) ;
#116 = DIRECTION ( 'NONE',  ( 3.491481338843133355E-15, -1.224646799147353207E-16, 1.000000000000000000 ) ) ;
#117 = DATE_TIME_ROLE ( 'classification_date' ) ;
#118 = AXIS2_PLACEMENT_3D ( 'NONE', #259, #114, #40 ) ;
#119 = CARTESIAN_POINT ( 'NONE',  ( 1.745740669421566678E-13, 1.199999999999995515, 50.00000000000000000 ) ) ;
#120 = EDGE_CURVE ( 'NONE', #121, #121, #152, .T. ) ;
#121 = VERTEX_POINT ( 'NONE', #269 ) ;
#122 = AXIS2_PLACEMENT_3D ( 'NONE', #50, #55, #277 ) ;
#123 = EDGE_CURVE ( 'NONE', #44, #44, #106, .T. ) ;
#124 = PRODUCT_DEFINITION_SHAPE ( 'NONE', 'NONE',  #279 ) ;
#125 = ORIENTED_EDGE ( 'NONE', *, *, #200, .T. ) ;
#126 = CARTESIAN_POINT ( 'NONE',  ( 8.728703347107829444E-16, -3.061616997868381785E-17, 0.2499999999999998890 ) ) ;
#127 = DESIGN_CONTEXT ( 'detailed design', #94, 'design' ) ;
#128 = ORIENTED_EDGE ( 'NONE', *, *, #81, .F. ) ;
#129 = APPLICATION_PROTOCOL_DEFINITION ( 'international standard', 'config_control_design', 1994, #94 ) ;
#130 = EDGE_LOOP ( 'NONE', ( #156 ) ) ;
#131 = LOCAL_TIME ( 9, 32, 36.00000000000000000, #257 ) ;
#132 = EDGE_CURVE ( 'NONE', #170, #170, #22, .T. ) ;
#133 = CARTESIAN_POINT ( 'NONE',  ( -1.569577408072982196E-31, 5.505336452542720691E-33, -4.495448366317333625E-17 ) ) ;
#134 = FACE_OUTER_BOUND ( 'NONE', #7, .T. ) ;
#135 = APPROVAL_ROLE ( '' ) ;
#136 = DIRECTION ( 'NONE',  ( -3.491481338843133355E-15, 1.224646799147353207E-16, -1.000000000000000000 ) ) ;
#137 = PERSON_AND_ORGANIZATION_ROLE ( 'classification_officer' ) ;
#138 = AXIS2_PLACEMENT_3D ( 'NONE', #166, #141, #282 ) ;
#139 = CARTESIAN_POINT ( 'NONE',  ( 5.935518276033326704E-14, -2.168404344971008868E-15, 17.00000000000000000 ) ) ;
#140 = DIRECTION ( 'NONE',  ( 0.0000000000000000000, 0.0000000000000000000, 1.000000000000000000 ) ) ;
#141 = DIRECTION ( 'NONE',  ( -3.491481338843133355E-15, 1.224646799147353207E-16, -1.000000000000000000 ) ) ;
#142 = VERTEX_POINT ( 'NONE', #71 ) ;
#143 = CIRCLE ( 'NONE', #122, 1.499999999999996669 ) ;
#144 = AXIS2_PLACEMENT_3D ( 'NONE', #133, #3, #17 ) ;
#145 = VERTEX_POINT ( 'NONE', #290 ) ;
#146 = ORIENTED_EDGE ( 'NONE', *, *, #72, .T. ) ;
#147 = APPROVAL ( #284, 'UNSPECIFIED' ) ;
#148 = AXIS2_PLACEMENT_3D ( 'NONE', #264, #140, #238 ) ;
#149 = EDGE_LOOP ( 'NONE', ( #270 ) ) ;
#150 = EDGE_LOOP ( 'NONE', ( #146 ) ) ;
#151 = DIRECTION ( 'NONE',  ( 0.0000000000000000000, 1.000000000000000000, 0.0000000000000000000 ) ) ;
#152 = CIRCLE ( 'NONE', #198, 0.8784999999999999476 ) ;
#153 = CC_DESIGN_SECURITY_CLASSIFICATION ( #215, ( #70 ) ) ;
#154 = EDGE_CURVE ( 'NONE', #145, #145, #57, .T. ) ;
#155 = CARTESIAN_POINT ( 'NONE',  ( 7.432196444682972937E-14, -2.606863592640920205E-15, 21.28665664627482812 ) ) ;
#156 = ORIENTED_EDGE ( 'NONE', *, *, #21, .T. ) ;
#157 = PERSON_AND_ORGANIZATION ( #104, #96 ) ;
#158 = DIRECTION ( 'NONE',  ( -3.491481338843133355E-15, 1.224646799147353207E-16, -1.000000000000000000 ) ) ;
#159 = APPROVAL_STATUS ( 'not_yet_approved' ) ;
#160 = AXIS2_PLACEMENT_3D ( 'NONE', #293, #179, #27 ) ;
#161 = DIRECTION ( 'NONE',  ( 0.0000000000000000000, 1.000000000000000000, 0.0000000000000000000 ) ) ;
#162 = APPROVAL_ROLE ( '' ) ;
#163 = DIRECTION ( 'NONE',  ( 0.0000000000000000000, 1.000000000000000000, 0.0000000000000000000 ) ) ;
#164 = FACE_OUTER_BOUND ( 'NONE', #247, .T. ) ;
#165 = CC_DESIGN_DATE_AND_TIME_ASSIGNMENT ( #182, #214, ( #279 ) ) ;
#166 = CARTESIAN_POINT ( 'NONE',  ( 1.745740669421566678E-13, 8.998558695971067645E-33, 50.00000000000000000 ) ) ;
#167 = COORDINATED_UNIVERSAL_TIME_OFFSET ( 1, 0, .AHEAD. ) ;
#168 = CARTESIAN_POINT ( 'NONE',  ( 1.745740669421566678E-13, -6.123233995736766085E-15, 50.00000000000000000 ) ) ;
#169 = DATE_AND_TIME ( #88, #251 ) ;
#170 = VERTEX_POINT ( 'NONE', #24 ) ;
#171 = MANIFOLD_SOLID_BREP ( 'Corps-Déplacer/Copier1[1]', #69 ) ;
#172 = ORIENTED_EDGE ( 'NONE', *, *, #21, .F. ) ;
#173 = CC_DESIGN_APPROVAL ( #263, ( #279 ) ) ;
#174 = CARTESIAN_POINT ( 'NONE',  ( 6.056776150402961829E-14, 0.8053844939755784305, 17.34729635533384240 ) ) ;
#175 = ADVANCED_FACE ( 'NONE', ( #227, #74 ), #99, .T. ) ;
#176 = AXIS2_PLACEMENT_3D ( 'NONE', #64, #89, #190 ) ;
#177 = ORIENTED_EDGE ( 'NONE', *, *, #31, .F. ) ;
#178 = PRODUCT ( '200127', '200127', '', ( #38 ) ) ;
#179 = DIRECTION ( 'NONE',  ( -3.491481338843133355E-15, 1.224646799147353207E-16, -1.000000000000000000 ) ) ;
#180 = AXIS2_PLACEMENT_3D ( 'NONE', #240, #188, #85 ) ;
#181 = ORIENTED_EDGE ( 'NONE', *, *, #120, .T. ) ;
#182 = DATE_AND_TIME ( #36, #258 ) ;
#183 = DIRECTION ( 'NONE',  ( -3.491481338843133355E-15, 1.224646799147353207E-16, -1.000000000000000000 ) ) ;
#184 = PERSON_AND_ORGANIZATION_ROLE ( 'creator' ) ;
#185 = CYLINDRICAL_SURFACE ( 'NONE', #13, 0.8784999999999995035 ) ;
#186 = CIRCLE ( 'NONE', #112, 0.8053844939755806509 ) ;
#187 = DIRECTION ( 'NONE',  ( 3.491481338843133355E-15, -1.224646799147353207E-16, 1.000000000000000000 ) ) ;
#188 = DIRECTION ( 'NONE',  ( -3.491481338843133355E-15, 1.224646799147353207E-16, -1.000000000000000000 ) ) ;
#189 = PRODUCT_RELATED_PRODUCT_CATEGORY ( 'detail', '', ( #178 ) ) ;
#190 = DIRECTION ( 'NONE',  ( -4.275831445896958607E-31, -1.000000000000000000, -1.224646799147353207E-16 ) ) ;
#191 = APPLICATION_PROTOCOL_DEFINITION ( 'international standard', 'config_control_design', 1994, #75 ) ;
#192 = DIRECTION ( 'NONE',  ( 4.275831445896958607E-31, 1.000000000000000000, 1.224646799147353207E-16 ) ) ;
#193 = CARTESIAN_POINT ( 'NONE',  ( 2.444036937190193349E-14, 6.587694845342195502E-33, 7.000000000000000000 ) ) ;
#194 = PERSON_AND_ORGANIZATION ( #104, #96 ) ;
#195 = VERTEX_POINT ( 'NONE', #43 ) ;
#196 = EDGE_LOOP ( 'NONE', ( #278 ) ) ;
#197 = CARTESIAN_POINT ( 'NONE',  ( 8.728703347107833388E-16, 0.8784999999999990594, 0.2500000000000000000 ) ) ;
#198 = AXIS2_PLACEMENT_3D ( 'NONE', #82, #52, #151 ) ;
#199 = ORIENTED_EDGE ( 'NONE', *, *, #81, .T. ) ;
#200 = EDGE_CURVE ( 'NONE', #195, #195, #26, .T. ) ;
#201 = ORIENTED_EDGE ( 'NONE', *, *, #154, .F. ) ;
#202 = AXIS2_PLACEMENT_3D ( 'NONE', #193, #116, #281 ) ;
#203 = ORIENTED_EDGE ( 'NONE', *, *, #123, .T. ) ;
#204 = ORIENTED_EDGE ( 'NONE', *, *, #72, .F. ) ;
#205 = APPROVAL_DATE_TIME ( #231, #263 ) ;
#206 = EDGE_LOOP ( 'NONE', ( #203 ) ) ;
#207 = CC_DESIGN_DATE_AND_TIME_ASSIGNMENT ( #169, #117, ( #215 ) ) ;
#208 = AXIS2_PLACEMENT_3D ( 'NONE', #110, #187, #301 ) ;
#209 = ORIENTED_EDGE ( 'NONE', *, *, #200, .F. ) ;
#210 = PERSON_AND_ORGANIZATION_ROLE ( 'creator' ) ;
#211 = EDGE_LOOP ( 'NONE', ( #181 ) ) ;
#212 = PERSON_AND_ORGANIZATION_ROLE ( 'design_supplier' ) ;
#213 = FACE_OUTER_BOUND ( 'NONE', #48, .T. ) ;
#214 = DATE_TIME_ROLE ( 'creation_date' ) ;
#215 = SECURITY_CLASSIFICATION ( '', '', #300 ) ;
#216 = DIRECTION ( 'NONE',  ( -3.491481338843133355E-15, 1.224646799147353207E-16, -1.000000000000000000 ) ) ;
#217 = ADVANCED_FACE ( 'NONE', ( #213 ), #91, .T. ) ;
#218 = FACE_OUTER_BOUND ( 'NONE', #211, .T. ) ;
#219 = ADVANCED_FACE ( 'NONE', ( #265 ), #242, .F. ) ;
#220 =( NAMED_UNIT ( * ) SI_UNIT ( $, .STERADIAN. ) SOLID_ANGLE_UNIT ( ) );
#221 = DIRECTION ( 'NONE',  ( -3.491481338843133355E-15, 1.224646799147353207E-16, -1.000000000000000000 ) ) ;
#222 = ADVANCED_FACE ( 'NONE', ( #41, #111 ), #2, .T. ) ;
#223 =( LENGTH_UNIT ( ) NAMED_UNIT ( * ) SI_UNIT ( .MILLI., .METRE. ) );
#224 = ORIENTED_EDGE ( 'NONE', *, *, #11, .F. ) ;
#225 = VERTEX_POINT ( 'NONE', #6 ) ;
#226 = ADVANCED_FACE ( 'NONE', ( #134, #164 ), #285, .F. ) ;
#227 = FACE_BOUND ( 'NONE', #299, .T. ) ;
#228 = CONICAL_SURFACE ( 'NONE', #273, 0.8784999999999999476, 0.5235987755982983716 ) ;
#229 = ADVANCED_FACE ( 'NONE', ( #260, #37 ), #303, .T. ) ;
#230 = EDGE_LOOP ( 'NONE', ( #204 ) ) ;
#231 = DATE_AND_TIME ( #302, #131 ) ;
#232 = EDGE_LOOP ( 'NONE', ( #172 ) ) ;
#233 = CARTESIAN_POINT ( 'NONE',  ( -3.139154816145964393E-31, 1.101067290508544138E-32, -8.990896732634667250E-17 ) ) ;
#234 = ADVANCED_FACE ( 'NONE', ( #241 ), #286, .F. ) ;
#235 = DIRECTION ( 'NONE',  ( -3.491481338843133355E-15, 1.224646799147353207E-16, -1.000000000000000000 ) ) ;
#236 = APPROVAL_STATUS ( 'not_yet_approved' ) ;
#237 = DIRECTION ( 'NONE',  ( 0.0000000000000000000, -1.000000000000000000, 0.0000000000000000000 ) ) ;
#238 = DIRECTION ( 'NONE',  ( 1.000000000000000000, 0.0000000000000000000, 0.0000000000000000000 ) ) ;
#239 = ADVANCED_FACE ( 'NONE', ( #20, #115 ), #267, .T. ) ;
#240 = CARTESIAN_POINT ( 'NONE',  ( 0.0000000000000000000, 0.0000000000000000000, 0.0000000000000000000 ) ) ;
#241 = FACE_OUTER_BOUND ( 'NONE', #130, .T. ) ;
#242 = PLANE ( 'NONE',  #138 ) ;
#243 = CALENDAR_DATE ( 2021, 30, 11 ) ;
#244 = AXIS2_PLACEMENT_3D ( 'NONE', #296, #29, #274 ) ;
#245 = VERTEX_POINT ( 'NONE', #119 ) ;
#246 = AXIS2_PLACEMENT_3D ( 'NONE', #66, #14, #283 ) ;
#247 = EDGE_LOOP ( 'NONE', ( #199 ) ) ;
#248 = APPROVAL_PERSON_ORGANIZATION ( #194, #147, #135 ) ;
#249 = EDGE_LOOP ( 'NONE', ( #209 ) ) ;
#250 = CLOSED_SHELL ( 'NONE', ( #234, #239, #59, #217 ) ) ;
#251 = LOCAL_TIME ( 9, 32, 36.00000000000000000, #61 ) ;
#252 = UNCERTAINTY_MEASURE_WITH_UNIT (LENGTH_MEASURE( 1.000000000000000082E-05 ), #223, 'distance_accuracy_value', 'NONE');
#253 = PERSON_AND_ORGANIZATION_ROLE ( 'design_owner' ) ;
#254 = ORIENTED_EDGE ( 'NONE', *, *, #154, .T. ) ;
#255 = ADVANCED_FACE ( 'NONE', ( #18, #92 ), #228, .T. ) ;
#256 = CARTESIAN_POINT ( 'NONE',  ( 1.735266225405037467E-13, -6.086494591762345225E-15, 49.70000000000000284 ) ) ;
#257 = COORDINATED_UNIVERSAL_TIME_OFFSET ( 1, 0, .AHEAD. ) ;
#258 = LOCAL_TIME ( 9, 32, 36.00000000000000000, #15 ) ;
#259 = CARTESIAN_POINT ( 'NONE',  ( 0.0000000000000000000, 0.0000000000000000000, 0.0000000000000000000 ) ) ;
#260 = FACE_OUTER_BOUND ( 'NONE', #196, .T. ) ;
#261 = AXIS2_PLACEMENT_3D ( 'NONE', #76, #10, #275 ) ;
#262 = CC_DESIGN_APPROVAL ( #147, ( #215 ) ) ;
#263 = APPROVAL ( #159, 'UNSPECIFIED' ) ;
#264 = CARTESIAN_POINT ( 'NONE',  ( 0.0000000000000000000, 0.0000000000000000000, 0.0000000000000000000 ) ) ;
#265 = FACE_OUTER_BOUND ( 'NONE', #45, .T. ) ;
#266 = VERTEX_POINT ( 'NONE', #174 ) ;
#267 = CONICAL_SURFACE ( 'NONE', #208, 0.8784999999999990594, 0.5235987755982923764 ) ;
#268 = ADVANCED_FACE ( 'NONE', ( #16, #87 ), #62, .T. ) ;
#269 = CARTESIAN_POINT ( 'NONE',  ( 2.444036937190193349E-14, 0.8784999999999990594, 7.000000000000000000 ) ) ;
#270 = ORIENTED_EDGE ( 'NONE', *, *, #132, .F. ) ;
#271 = ORIENTED_EDGE ( 'NONE', *, *, #132, .T. ) ;
#272 = ADVANCED_FACE ( 'NONE', ( #218 ), #1, .F. ) ;
#273 = AXIS2_PLACEMENT_3D ( 'NONE', #58, #136, #163 ) ;
#274 = DIRECTION ( 'NONE',  ( 0.0000000000000000000, 1.000000000000000000, 0.0000000000000000000 ) ) ;
#275 = DIRECTION ( 'NONE',  ( 0.0000000000000000000, 1.000000000000000000, 0.0000000000000000000 ) ) ;
#276 = CARTESIAN_POINT ( 'NONE',  ( 6.056776150402961829E-14, -2.124431095542013598E-15, 17.34729635533384240 ) ) ;
#277 = DIRECTION ( 'NONE',  ( 0.0000000000000000000, 1.000000000000000000, 0.0000000000000000000 ) ) ;
#278 = ORIENTED_EDGE ( 'NONE', *, *, #11, .T. ) ;
#279 = PRODUCT_DEFINITION ( 'UNKNOWN', '', #70, #127 ) ;
#280 = AXIS2_PLACEMENT_3D ( 'NONE', #139, #221, #192 ) ;
#281 = DIRECTION ( 'NONE',  ( -4.275831445896958607E-31, -1.000000000000000000, -1.224646799147353207E-16 ) ) ;
#282 = DIRECTION ( 'NONE',  ( 4.275831445896958607E-31, 1.000000000000000000, 1.224646799147353207E-16 ) ) ;
#283 = DIRECTION ( 'NONE',  ( 0.0000000000000000000, 1.000000000000000000, 0.0000000000000000000 ) ) ;
#284 = APPROVAL_STATUS ( 'not_yet_approved' ) ;
#285 = TOROIDAL_SURFACE ( 'NONE', #280, 2.774999999999999467, 2.000000000000000000 ) ;
#286 = PLANE ( 'NONE',  #144 ) ;
#287 = PERSON_AND_ORGANIZATION ( #104, #96 ) ;
#288 = DIRECTION ( 'NONE',  ( 0.0000000000000000000, 1.000000000000000000, 0.0000000000000000000 ) ) ;
#289 = APPROVAL_DATE_TIME ( #19, #147 ) ;
#290 = CARTESIAN_POINT ( 'NONE',  ( 2.444036937190193349E-14, 0.8784999999999990594, 7.000000000000000000 ) ) ;
#291 = AXIS2_PLACEMENT_3D ( 'NONE', #256, #158, #35 ) ;
#292 = DIRECTION ( 'NONE',  ( -3.491481338843133355E-15, 1.224646799147353207E-16, -1.000000000000000000 ) ) ;
#293 = CARTESIAN_POINT ( 'NONE',  ( 2.444036937190193349E-14, -8.572527594031473190E-16, 7.000000000000000000 ) ) ;
#294 = PERSON_AND_ORGANIZATION ( #104, #96 ) ;
#295 = CC_DESIGN_PERSON_AND_ORGANIZATION_ASSIGNMENT ( #287, #137, ( #215 ) ) ;
#296 = CARTESIAN_POINT ( 'NONE',  ( 5.935518276033326704E-14, -2.081899558550500280E-15, 17.00000000000000000 ) ) ;
#297 = ORIENTED_EDGE ( 'NONE', *, *, #31, .T. ) ;
#298 = PERSON_AND_ORGANIZATION ( #104, #96 ) ;
#299 = EDGE_LOOP ( 'NONE', ( #128 ) ) ;
#300 = SECURITY_CLASSIFICATION_LEVEL ( 'unclassified' ) ;
#301 = DIRECTION ( 'NONE',  ( -4.384587238217958046E-31, -1.000000000000000000, -1.234151590763239252E-16 ) ) ;
#302 = CALENDAR_DATE ( 2021, 30, 11 ) ;
#303 = CYLINDRICAL_SURFACE ( 'NONE', #180, 0.7750000000000004663 ) ;
ENDSEC;
END-ISO-10303-21;
