ISO-10303-21;
HEADER;
FILE_DESCRIPTION (( 'STEP AP203' ),
    '1' );
FILE_NAME ('200126.step',
    '2021-11-30T08:32:35',
    ( '' ),
    ( '' ),
    'SwSTEP 2.0',
    'SolidWorks 2019',
    '' );
FILE_SCHEMA (( 'CONFIG_CONTROL_DESIGN' ));
ENDSEC;

DATA;
#1 = AXIS2_PLACEMENT_3D ( 'NONE', #204, #85, #270 ) ;
#2 = EDGE_LOOP ( 'NONE', ( #156 ) ) ;
#3 = APPROVAL_ROLE ( '' ) ;
#4 = APPROVAL_DATE_TIME ( #210, #50 ) ;
#5 = DIRECTION ( 'NONE',  ( 4.275831445896958607E-31, 1.000000000000000000, 1.224646799147353207E-16 ) ) ;
#6 = CC_DESIGN_APPROVAL ( #137, ( #201 ) ) ;
#7 = CYLINDRICAL_SURFACE ( 'NONE', #35, 0.8534999999999995923 ) ;
#8 = AXIS2_PLACEMENT_3D ( 'NONE', #251, #58, #248 ) ;
#9 = MECHANICAL_CONTEXT ( 'NONE', #217, 'mechanical' ) ;
#10 = DIRECTION ( 'NONE',  ( -3.491481338843133355E-15, 1.224646799147353207E-16, -1.000000000000000000 ) ) ;
#11 = COORDINATED_UNIVERSAL_TIME_OFFSET ( 1, 0, .AHEAD. ) ;
#12 = ADVANCED_FACE ( 'NONE', ( #115, #191 ), #198, .T. ) ;
#13 = FACE_OUTER_BOUND ( 'NONE', #54, .T. ) ;
#14 = CALENDAR_DATE ( 2021, 30, 11 ) ;
#15 = DIRECTION ( 'NONE',  ( 0.0000000000000000000, 1.000000000000000000, 0.0000000000000000000 ) ) ;
#16 = PERSON_AND_ORGANIZATION ( #193, #123 ) ;
#17 = AXIS2_PLACEMENT_3D ( 'NONE', #124, #44, #147 ) ;
#18 = ADVANCED_FACE ( 'NONE', ( #295, #264 ), #69, .T. ) ;
#19 = UNCERTAINTY_MEASURE_WITH_UNIT (LENGTH_MEASURE( 1.000000000000000082E-05 ), #280, 'distance_accuracy_value', 'NONE');
#20 = APPROVAL_STATUS ( 'not_yet_approved' ) ;
#21 = FACE_OUTER_BOUND ( 'NONE', #157, .T. ) ;
#22 = CC_DESIGN_DATE_AND_TIME_ASSIGNMENT ( #174, #127, ( #201 ) ) ;
#23 = APPLICATION_CONTEXT ( 'configuration controlled 3d designs of mechanical parts and assemblies' ) ;
#24 = ORIENTED_EDGE ( 'NONE', *, *, #135, .T. ) ;
#25 = PRODUCT_RELATED_PRODUCT_CATEGORY ( 'detail', '', ( #37 ) ) ;
#26 = VERTEX_POINT ( 'NONE', #189 ) ;
#27 = AXIS2_PLACEMENT_3D ( 'NONE', #173, #291, #76 ) ;
#28 = ORIENTED_EDGE ( 'NONE', *, *, #294, .F. ) ;
#29 = CARTESIAN_POINT ( 'NONE',  ( 1.745740669421566678E-13, 1.199999999999995515, 50.00000000000000000 ) ) ;
#30 = PLANE ( 'NONE',  #65 ) ;
#31 = CIRCLE ( 'NONE', #212, 0.8535000000000000364 ) ;
#32 = CARTESIAN_POINT ( 'NONE',  ( 2.444036937190193349E-14, 6.400224872509464670E-33, 7.000000000000000000 ) ) ;
#33 = APPROVAL_STATUS ( 'not_yet_approved' ) ;
#34 = CARTESIAN_POINT ( 'NONE',  ( 7.132551247399949243E-14, -2.501762205544828606E-15, 20.42843869176527249 ) ) ;
#35 = AXIS2_PLACEMENT_3D ( 'NONE', #290, #120, #267 ) ;
#36 = EDGE_CURVE ( 'NONE', #293, #293, #153, .T. ) ;
#37 = PRODUCT ( '200126', '200126', '', ( #9 ) ) ;
#38 = FACE_OUTER_BOUND ( 'NONE', #2, .T. ) ;
#39 = LOCAL_TIME ( 9, 32, 35.00000000000000000, #265 ) ;
#40 = EDGE_CURVE ( 'NONE', #223, #223, #52, .T. ) ;
#41 = FACE_OUTER_BOUND ( 'NONE', #73, .T. ) ;
#42 = DATE_TIME_ROLE ( 'classification_date' ) ;
#43 = AXIS2_PLACEMENT_3D ( 'NONE', #206, #87, #254 ) ;
#44 = DIRECTION ( 'NONE',  ( -3.491481338843133355E-15, 1.224646799147353207E-16, -1.000000000000000000 ) ) ;
#45 = DIRECTION ( 'NONE',  ( -3.491481338843133355E-15, 1.224646799147353207E-16, -1.000000000000000000 ) ) ;
#46 = AXIS2_PLACEMENT_3D ( 'NONE', #133, #169, #240 ) ;
#47 = FACE_BOUND ( 'NONE', #113, .T. ) ;
#48 = AXIS2_PLACEMENT_3D ( 'NONE', #168, #170, #143 ) ;
#49 = CC_DESIGN_SECURITY_CLASSIFICATION ( #219, ( #242 ) ) ;
#50 = APPROVAL ( #186, 'UNSPECIFIED' ) ;
#51 = EDGE_LOOP ( 'NONE', ( #28 ) ) ;
#52 = CIRCLE ( 'NONE', #200, 1.499999999999996669 ) ;
#53 = VERTEX_POINT ( 'NONE', #29 ) ;
#54 = EDGE_LOOP ( 'NONE', ( #152 ) ) ;
#55 = EDGE_LOOP ( 'NONE', ( #234 ) ) ;
#56 = CIRCLE ( 'NONE', #213, 0.7091624327025947139 ) ;
#57 = DATE_AND_TIME ( #62, #176 ) ;
#58 = DIRECTION ( 'NONE',  ( -3.491481338843133355E-15, 1.224646799147353207E-16, -1.000000000000000000 ) ) ;
#59 = DIRECTION ( 'NONE',  ( -3.491481338843133355E-15, 1.224646799147353207E-16, -1.000000000000000000 ) ) ;
#60 = TOROIDAL_SURFACE ( 'NONE', #48, 2.750000000000000444, 2.000000000000000444 ) ;
#61 = CARTESIAN_POINT ( 'NONE',  ( 1.745740669421566678E-13, 8.998558695971067645E-33, 50.00000000000000000 ) ) ;
#62 = CALENDAR_DATE ( 2021, 30, 11 ) ;
#63 = FACE_OUTER_BOUND ( 'NONE', #66, .T. ) ;
#64 = EDGE_LOOP ( 'NONE', ( #282 ) ) ;
#65 = AXIS2_PLACEMENT_3D ( 'NONE', #32, #289, #261 ) ;
#66 = EDGE_LOOP ( 'NONE', ( #233 ) ) ;
#67 =( NAMED_UNIT ( * ) PLANE_ANGLE_UNIT ( ) SI_UNIT ( $, .RADIAN. ) );
#68 = ORIENTED_EDGE ( 'NONE', *, *, #40, .F. ) ;
#69 = CONICAL_SURFACE ( 'NONE', #284, 1.499999999999996669, 0.1745329251994263142 ) ;
#70 = EDGE_LOOP ( 'NONE', ( #285 ) ) ;
#71 = ADVANCED_FACE ( 'NONE', ( #166, #224 ), #60, .F. ) ;
#72 = FACE_OUTER_BOUND ( 'NONE', #194, .T. ) ;
#73 = EDGE_LOOP ( 'NONE', ( #154 ) ) ;
#74 = PERSON_AND_ORGANIZATION_ROLE ( 'design_owner' ) ;
#75 = ORIENTED_EDGE ( 'NONE', *, *, #283, .F. ) ;
#76 = DIRECTION ( 'NONE',  ( 4.513016858552402834E-31, 1.000000000000000000, 1.270301315155835491E-16 ) ) ;
#77 = PERSON_AND_ORGANIZATION_ROLE ( 'creator' ) ;
#78 = ORIENTED_EDGE ( 'NONE', *, *, #252, .F. ) ;
#79 = AXIS2_PLACEMENT_3D ( 'NONE', #118, #103, #244 ) ;
#80 = DIRECTION ( 'NONE',  ( -4.275831445896958607E-31, -1.000000000000000000, -1.224646799147353207E-16 ) ) ;
#81 = DESIGN_CONTEXT ( 'detailed design', #23, 'design' ) ;
#82 = COORDINATED_UNIVERSAL_TIME_OFFSET ( 1, 0, .AHEAD. ) ;
#83 = CARTESIAN_POINT ( 'NONE',  ( 7.132551247399949243E-14, 1.499999999999994005, 20.42843869176527249 ) ) ;
#84 = AXIS2_PLACEMENT_3D ( 'NONE', #129, #59, #150 ) ;
#85 = DIRECTION ( 'NONE',  ( -3.491481338843133355E-15, 1.224646799147353207E-16, -1.000000000000000000 ) ) ;
#86 = COORDINATED_UNIVERSAL_TIME_OFFSET ( 1, 0, .AHEAD. ) ;
#87 = DIRECTION ( 'NONE',  ( 3.491481338843133355E-15, -1.224646799147353207E-16, 1.000000000000000000 ) ) ;
#88 = DIRECTION ( 'NONE',  ( 0.0000000000000000000, 1.000000000000000000, 0.0000000000000000000 ) ) ;
#89 = CIRCLE ( 'NONE', #302, 0.8535000000000000364 ) ;
#90 = EDGE_LOOP ( 'NONE', ( #279 ) ) ;
#91 = APPROVAL ( #20, 'UNSPECIFIED' ) ;
#92 = COORDINATED_UNIVERSAL_TIME_OFFSET ( 1, 0, .AHEAD. ) ;
#93 = PERSON_AND_ORGANIZATION ( #193, #123 ) ;
#94 = CARTESIAN_POINT ( 'NONE',  ( 2.444036937190193349E-14, 0.8534999999999991482, 7.000000000000000000 ) ) ;
#95 = SHAPE_DEFINITION_REPRESENTATION ( #292, #171 ) ;
#96 = EDGE_LOOP ( 'NONE', ( #209 ) ) ;
#97 = VERTEX_POINT ( 'NONE', #286 ) ;
#98 = CARTESIAN_POINT ( 'NONE',  ( 7.132551247399949243E-14, -2.501762205544828606E-15, 20.42843869176527249 ) ) ;
#99 = APPROVAL_PERSON_ORGANIZATION ( #93, #50, #3 ) ;
#100 = CC_DESIGN_DATE_AND_TIME_ASSIGNMENT ( #249, #42, ( #219 ) ) ;
#101 = EDGE_LOOP ( 'NONE', ( #281 ) ) ;
#102 = PERSON_AND_ORGANIZATION ( #193, #123 ) ;
#103 = DIRECTION ( 'NONE',  ( -3.491481338843133355E-15, 1.224646799147353207E-16, -1.000000000000000000 ) ) ;
#104 = APPROVAL_DATE_TIME ( #221, #137 ) ;
#105 = DIRECTION ( 'NONE',  ( -3.491481338843133355E-15, 1.224646799147353207E-16, -1.000000000000000000 ) ) ;
#106 = CARTESIAN_POINT ( 'NONE',  ( -1.516129514999269973E-31, 5.317866479709987806E-33, -4.342367516423914197E-17 ) ) ;
#107 = DIRECTION ( 'NONE',  ( 3.491481338843133355E-15, -1.224646799147353207E-16, 1.000000000000000000 ) ) ;
#108 = CC_DESIGN_PERSON_AND_ORGANIZATION_ASSIGNMENT ( #196, #77, ( #201 ) ) ;
#109 = CARTESIAN_POINT ( 'NONE',  ( 1.745740669421566678E-13, -6.123233995736766085E-15, 50.00000000000000000 ) ) ;
#110 = CIRCLE ( 'NONE', #165, 1.200000000000001732 ) ;
#111 = APPROVAL_DATE_TIME ( #57, #91 ) ;
#112 = CARTESIAN_POINT ( 'NONE',  ( 1.735266225405037467E-13, -6.086494591762345225E-15, 49.70000000000000284 ) ) ;
#113 = EDGE_LOOP ( 'NONE', ( #24 ) ) ;
#114 = ORIENTED_EDGE ( 'NONE', *, *, #288, .T. ) ;
#115 = FACE_OUTER_BOUND ( 'NONE', #70, .T. ) ;
#116 = APPLICATION_PROTOCOL_DEFINITION ( 'international standard', 'config_control_design', 1994, #217 ) ;
#117 = ADVANCED_FACE ( 'NONE', ( #239, #287 ), #272, .T. ) ;
#118 = CARTESIAN_POINT ( 'NONE',  ( 2.506627765991136237E-14, -8.792066668447526579E-16, 7.179267258583377220 ) ) ;
#119 = CARTESIAN_POINT ( 'NONE',  ( 8.728703347107831416E-16, -3.061616997868382402E-17, 0.2499999999999999445 ) ) ;
#120 = DIRECTION ( 'NONE',  ( -3.491481338843133355E-15, 1.224646799147353207E-16, -1.000000000000000000 ) ) ;
#121 = APPROVAL_ROLE ( '' ) ;
#122 = ADVANCED_FACE ( 'NONE', ( #72 ), #30, .T. ) ;
#123 = ORGANIZATION ( 'UNSPECIFIED', 'UNSPECIFIED', '' ) ;
#124 = CARTESIAN_POINT ( 'NONE',  ( 0.0000000000000000000, 0.0000000000000000000, 0.0000000000000000000 ) ) ;
#125 = FACE_OUTER_BOUND ( 'NONE', #96, .T. ) ;
#126 = CARTESIAN_POINT ( 'NONE',  ( 2.444036937190193349E-14, -8.572527594031473190E-16, 7.000000000000000000 ) ) ;
#127 = DATE_TIME_ROLE ( 'creation_date' ) ;
#128 = DIRECTION ( 'NONE',  ( 0.0000000000000000000, 1.000000000000000000, 0.0000000000000000000 ) ) ;
#129 = CARTESIAN_POINT ( 'NONE',  ( 2.444036937190193349E-14, -8.572527594031473190E-16, 7.000000000000000000 ) ) ;
#130 = ORIENTED_EDGE ( 'NONE', *, *, #131, .F. ) ;
#131 = EDGE_CURVE ( 'NONE', #177, #177, #56, .T. ) ;
#132 = EDGE_LOOP ( 'NONE', ( #68 ) ) ;
#133 = CARTESIAN_POINT ( 'NONE',  ( 5.707628016518648493E-14, -2.001966415627278844E-15, 16.34729635533384595 ) ) ;
#134 = CIRCLE ( 'NONE', #8, 0.7500000000000000000 ) ;
#135 = EDGE_CURVE ( 'NONE', #26, #26, #158, .T. ) ;
#136 = CLOSED_SHELL ( 'NONE', ( #255, #271, #12, #71, #18, #214, #237, #247 ) ) ;
#137 = APPROVAL ( #33, 'UNSPECIFIED' ) ;
#138 = CARTESIAN_POINT ( 'NONE',  ( 2.444036937190193349E-14, 0.8534999999999991482, 7.000000000000000000 ) ) ;
#139 = ORIENTED_EDGE ( 'NONE', *, *, #40, .T. ) ;
#140 = CARTESIAN_POINT ( 'NONE',  ( -3.032259029998539946E-31, 1.063573295941997561E-32, -8.684735032847828393E-17 ) ) ;
#141 =( GEOMETRIC_REPRESENTATION_CONTEXT ( 3 ) GLOBAL_UNCERTAINTY_ASSIGNED_CONTEXT ( ( #19 ) ) GLOBAL_UNIT_ASSIGNED_CONTEXT ( ( #280, #67, #163 ) ) REPRESENTATION_CONTEXT ( 'NONE', 'WORKASPACE' ) );
#142 = DIRECTION ( 'NONE',  ( 3.491481338843133355E-15, -1.224646799147353207E-16, 1.000000000000000000 ) ) ;
#143 = DIRECTION ( 'NONE',  ( 4.275831445896957731E-31, 1.000000000000000000, 1.224646799147353207E-16 ) ) ;
#144 = EDGE_LOOP ( 'NONE', ( #139 ) ) ;
#145 = PERSON_AND_ORGANIZATION ( #193, #123 ) ;
#146 = LOCAL_TIME ( 9, 32, 35.00000000000000000, #92 ) ;
#147 = DIRECTION ( 'NONE',  ( 4.275831445896958607E-31, 1.000000000000000000, 1.224646799147353454E-16 ) ) ;
#148 = CC_DESIGN_PERSON_AND_ORGANIZATION_ASSIGNMENT ( #102, #74, ( #37 ) ) ;
#149 = CARTESIAN_POINT ( 'NONE',  ( 0.0000000000000000000, 0.7091624327025947139, 0.0000000000000000000 ) ) ;
#150 = DIRECTION ( 'NONE',  ( 0.0000000000000000000, 1.000000000000000000, 0.0000000000000000000 ) ) ;
#151 = PLANE ( 'NONE',  #43 ) ;
#152 = ORIENTED_EDGE ( 'NONE', *, *, #36, .F. ) ;
#153 = CIRCLE ( 'NONE', #27, 0.8534999999999991482 ) ;
#154 = ORIENTED_EDGE ( 'NONE', *, *, #195, .T. ) ;
#155 = APPROVAL_PERSON_ORGANIZATION ( #167, #137, #121 ) ;
#156 = ORIENTED_EDGE ( 'NONE', *, *, #283, .T. ) ;
#157 = EDGE_LOOP ( 'NONE', ( #114 ) ) ;
#158 = CIRCLE ( 'NONE', #79, 0.7500000000000006661 ) ;
#159 = EDGE_LOOP ( 'NONE', ( #245 ) ) ;
#160 = MANIFOLD_SOLID_BREP ( 'Corps-Déplacer/Copier1[2]', #238 ) ;
#161 = CC_DESIGN_APPROVAL ( #50, ( #219 ) ) ;
#162 = VERTEX_POINT ( 'NONE', #258 ) ;
#163 =( NAMED_UNIT ( * ) SI_UNIT ( $, .STERADIAN. ) SOLID_ANGLE_UNIT ( ) );
#164 = DIRECTION ( 'NONE',  ( 0.0000000000000000000, 0.0000000000000000000, 1.000000000000000000 ) ) ;
#165 = AXIS2_PLACEMENT_3D ( 'NONE', #109, #45, #277 ) ;
#166 = FACE_OUTER_BOUND ( 'NONE', #55, .T. ) ;
#167 = PERSON_AND_ORGANIZATION ( #193, #123 ) ;
#168 = CARTESIAN_POINT ( 'NONE',  ( 5.586370142149013368E-14, -2.168404344971008868E-15, 16.00000000000000000 ) ) ;
#169 = DIRECTION ( 'NONE',  ( -3.491481338843133355E-15, 1.224646799147353207E-16, -1.000000000000000000 ) ) ;
#170 = DIRECTION ( 'NONE',  ( -3.491481338843133355E-15, 1.224646799147353207E-16, -1.000000000000000000 ) ) ;
#171 = ADVANCED_BREP_SHAPE_REPRESENTATION ( '200126', ( #278, #160, #268 ), #141 ) ;
#172 = CARTESIAN_POINT ( 'NONE',  ( 0.0000000000000000000, 0.0000000000000000000, 0.0000000000000000000 ) ) ;
#173 = CARTESIAN_POINT ( 'NONE',  ( 8.728703347107831416E-16, -3.061616997868382402E-17, 0.2499999999999999445 ) ) ;
#174 = DATE_AND_TIME ( #199, #39 ) ;
#175 = CC_DESIGN_PERSON_AND_ORGANIZATION_ASSIGNMENT ( #145, #298, ( #219 ) ) ;
#176 = LOCAL_TIME ( 9, 32, 35.00000000000000000, #86 ) ;
#177 = VERTEX_POINT ( 'NONE', #149 ) ;
#178 = PERSON_AND_ORGANIZATION ( #193, #123 ) ;
#179 = DIRECTION ( 'NONE',  ( -3.491481338843133355E-15, 1.224646799147353207E-16, -1.000000000000000000 ) ) ;
#180 = PERSON_AND_ORGANIZATION_ROLE ( 'creator' ) ;
#181 = APPROVAL_PERSON_ORGANIZATION ( #178, #91, #299 ) ;
#182 = CYLINDRICAL_SURFACE ( 'NONE', #17, 1.499999999999999112 ) ;
#183 = ADVANCED_FACE ( 'NONE', ( #13, #38 ), #7, .T. ) ;
#184 = EDGE_LOOP ( 'NONE', ( #130 ) ) ;
#185 = AXIS2_PLACEMENT_3D ( 'NONE', #106, #107, #80 ) ;
#186 = APPROVAL_STATUS ( 'not_yet_approved' ) ;
#187 = EDGE_LOOP ( 'NONE', ( #78 ) ) ;
#188 = CC_DESIGN_PERSON_AND_ORGANIZATION_ASSIGNMENT ( #202, #275, ( #242 ) ) ;
#189 = CARTESIAN_POINT ( 'NONE',  ( 2.506627765991136237E-14, 0.7499999999999997780, 7.179267258583377220 ) ) ;
#190 = DIRECTION ( 'NONE',  ( -4.513016858552402834E-31, -1.000000000000000000, -1.270301315155835491E-16 ) ) ;
#191 = FACE_OUTER_BOUND ( 'NONE', #159, .T. ) ;
#192 = APPLICATION_PROTOCOL_DEFINITION ( 'international standard', 'config_control_design', 1994, #23 ) ;
#193 = PERSON ( 'UNSPECIFIED', 'UNSPECIFIED', 'UNSPECIFIED', ('UNSPECIFIED'), ('UNSPECIFIED'), ('UNSPECIFIED') ) ;
#194 = EDGE_LOOP ( 'NONE', ( #75 ) ) ;
#195 = EDGE_CURVE ( 'NONE', #97, #97, #205, .T. ) ;
#196 = PERSON_AND_ORGANIZATION ( #193, #123 ) ;
#197 = LOCAL_TIME ( 9, 32, 35.00000000000000000, #11 ) ;
#198 = CYLINDRICAL_SURFACE ( 'NONE', #259, 0.7500000000000003331 ) ;
#199 = CALENDAR_DATE ( 2021, 30, 11 ) ;
#200 = AXIS2_PLACEMENT_3D ( 'NONE', #34, #105, #218 ) ;
#201 = PRODUCT_DEFINITION ( 'UNKNOWN', '', #242, #81 ) ;
#202 = PERSON_AND_ORGANIZATION ( #193, #123 ) ;
#203 = LOCAL_TIME ( 9, 32, 35.00000000000000000, #82 ) ;
#204 = CARTESIAN_POINT ( 'NONE',  ( 1.745740669421566678E-13, -6.123233995736766085E-15, 50.00000000000000000 ) ) ;
#205 = CIRCLE ( 'NONE', #235, 1.500000000000001554 ) ;
#206 = CARTESIAN_POINT ( 'NONE',  ( 2.444036937190193349E-14, 6.400224872509464670E-33, 7.000000000000000000 ) ) ;
#207 = DIRECTION ( 'NONE',  ( -3.491481338843133355E-15, 1.224646799147353207E-16, -1.000000000000000000 ) ) ;
#208 = EDGE_LOOP ( 'NONE', ( #303 ) ) ;
#209 = ORIENTED_EDGE ( 'NONE', *, *, #195, .F. ) ;
#210 = DATE_AND_TIME ( #257, #146 ) ;
#211 = VERTEX_POINT ( 'NONE', #94 ) ;
#212 = AXIS2_PLACEMENT_3D ( 'NONE', #126, #207, #88 ) ;
#213 = AXIS2_PLACEMENT_3D ( 'NONE', #140, #10, #241 ) ;
#214 = ADVANCED_FACE ( 'NONE', ( #250, #41 ), #182, .T. ) ;
#215 = DIRECTION ( 'NONE',  ( 0.0000000000000000000, -1.000000000000000000, 0.0000000000000000000 ) ) ;
#216 = VERTEX_POINT ( 'NONE', #138 ) ;
#217 = APPLICATION_CONTEXT ( 'configuration controlled 3d designs of mechanical parts and assemblies' ) ;
#218 = DIRECTION ( 'NONE',  ( 0.0000000000000000000, 1.000000000000000000, 0.0000000000000000000 ) ) ;
#219 = SECURITY_CLASSIFICATION ( '', '', #296 ) ;
#220 = DIRECTION ( 'NONE',  ( -3.491481338843133355E-15, 1.224646799147353207E-16, -1.000000000000000000 ) ) ;
#221 = DATE_AND_TIME ( #14, #197 ) ;
#222 = DIRECTION ( 'NONE',  ( 3.491481338843133355E-15, -1.224646799147353207E-16, 1.000000000000000000 ) ) ;
#223 = VERTEX_POINT ( 'NONE', #83 ) ;
#224 = FACE_OUTER_BOUND ( 'NONE', #101, .T. ) ;
#225 = CARTESIAN_POINT ( 'NONE',  ( 2.444036937190193349E-14, -8.572527594031473190E-16, 7.000000000000000000 ) ) ;
#226 = CONICAL_SURFACE ( 'NONE', #1, 1.200000000000001732, 0.7853981633974453924 ) ;
#227 = ADVANCED_FACE ( 'NONE', ( #297 ), #230, .F. ) ;
#228 = FACE_BOUND ( 'NONE', #90, .T. ) ;
#229 = FACE_OUTER_BOUND ( 'NONE', #187, .T. ) ;
#230 = PLANE ( 'NONE',  #185 ) ;
#231 = CC_DESIGN_APPROVAL ( #91, ( #242 ) ) ;
#232 = EDGE_CURVE ( 'NONE', #162, #162, #134, .T. ) ;
#233 = ORIENTED_EDGE ( 'NONE', *, *, #288, .F. ) ;
#234 = ORIENTED_EDGE ( 'NONE', *, *, #232, .F. ) ;
#235 = AXIS2_PLACEMENT_3D ( 'NONE', #112, #301, #128 ) ;
#236 = CARTESIAN_POINT ( 'NONE',  ( 5.707628016518648493E-14, 0.7803844939755786303, 16.34729635533384595 ) ) ;
#237 = ADVANCED_FACE ( 'NONE', ( #125, #228 ), #226, .T. ) ;
#238 = CLOSED_SHELL ( 'NONE', ( #227, #117, #183, #122 ) ) ;
#239 = FACE_BOUND ( 'NONE', #184, .T. ) ;
#240 = DIRECTION ( 'NONE',  ( 0.0000000000000000000, 1.000000000000000000, 0.0000000000000000000 ) ) ;
#241 = DIRECTION ( 'NONE',  ( 4.275831445896958607E-31, 1.000000000000000000, 1.224646799147353207E-16 ) ) ;
#242 = PRODUCT_DEFINITION_FORMATION_WITH_SPECIFIED_SOURCE ( 'ANY', '', #37, .NOT_KNOWN. ) ;
#243 = AXIS2_PLACEMENT_3D ( 'NONE', #61, #179, #273 ) ;
#244 = DIRECTION ( 'NONE',  ( 0.0000000000000000000, 1.000000000000000000, 0.0000000000000000000 ) ) ;
#245 = ORIENTED_EDGE ( 'NONE', *, *, #135, .F. ) ;
#246 = DIRECTION ( 'NONE',  ( -3.491481338843133355E-15, 1.224646799147353207E-16, -1.000000000000000000 ) ) ;
#247 = ADVANCED_FACE ( 'NONE', ( #229 ), #274, .F. ) ;
#248 = DIRECTION ( 'NONE',  ( 0.0000000000000000000, 1.000000000000000000, 0.0000000000000000000 ) ) ;
#249 = DATE_AND_TIME ( #269, #203 ) ;
#250 = FACE_OUTER_BOUND ( 'NONE', #132, .T. ) ;
#251 = CARTESIAN_POINT ( 'NONE',  ( 5.586370142149013368E-14, -1.959434878635765131E-15, 16.00000000000000000 ) ) ;
#252 = EDGE_CURVE ( 'NONE', #53, #53, #110, .T. ) ;
#253 = CIRCLE ( 'NONE', #46, 0.7803844939755805177 ) ;
#254 = DIRECTION ( 'NONE',  ( -4.275831445896958607E-31, -1.000000000000000000, -1.224646799147353207E-16 ) ) ;
#255 = ADVANCED_FACE ( 'NONE', ( #21 ), #151, .F. ) ;
#256 = VERTEX_POINT ( 'NONE', #236 ) ;
#257 = CALENDAR_DATE ( 2021, 30, 11 ) ;
#258 = CARTESIAN_POINT ( 'NONE',  ( 5.586370142149013368E-14, 0.7499999999999981126, 16.00000000000000000 ) ) ;
#259 = AXIS2_PLACEMENT_3D ( 'NONE', #263, #220, #5 ) ;
#260 = DIRECTION ( 'NONE',  ( 1.000000000000000000, 0.0000000000000000000, 0.0000000000000000000 ) ) ;
#261 = DIRECTION ( 'NONE',  ( -4.275831445896958607E-31, -1.000000000000000000, -1.224646799147353207E-16 ) ) ;
#262 = CARTESIAN_POINT ( 'NONE',  ( 8.728703347107835360E-16, 0.8534999999999991482, 0.2500000000000000555 ) ) ;
#263 = CARTESIAN_POINT ( 'NONE',  ( 0.0000000000000000000, 0.0000000000000000000, 0.0000000000000000000 ) ) ;
#264 = FACE_OUTER_BOUND ( 'NONE', #144, .T. ) ;
#265 = COORDINATED_UNIVERSAL_TIME_OFFSET ( 1, 0, .AHEAD. ) ;
#266 = CC_DESIGN_PERSON_AND_ORGANIZATION_ASSIGNMENT ( #16, #180, ( #242 ) ) ;
#267 = DIRECTION ( 'NONE',  ( 4.275831445896958607E-31, 1.000000000000000000, 1.224646799147353207E-16 ) ) ;
#268 = AXIS2_PLACEMENT_3D ( 'NONE', #172, #164, #260 ) ;
#269 = CALENDAR_DATE ( 2021, 30, 11 ) ;
#270 = DIRECTION ( 'NONE',  ( 0.0000000000000000000, 1.000000000000000000, 0.0000000000000000000 ) ) ;
#271 = ADVANCED_FACE ( 'NONE', ( #47, #63 ), #276, .T. ) ;
#272 = CONICAL_SURFACE ( 'NONE', #300, 0.8534999999999991482, 0.5235987755982925984 ) ;
#273 = DIRECTION ( 'NONE',  ( 4.275831445896958607E-31, 1.000000000000000000, 1.224646799147353207E-16 ) ) ;
#274 = PLANE ( 'NONE',  #243 ) ;
#275 = PERSON_AND_ORGANIZATION_ROLE ( 'design_supplier' ) ;
#276 = CONICAL_SURFACE ( 'NONE', #84, 0.8535000000000000364, 0.5235987755982998149 ) ;
#277 = DIRECTION ( 'NONE',  ( 0.0000000000000000000, 1.000000000000000000, 0.0000000000000000000 ) ) ;
#278 = MANIFOLD_SOLID_BREP ( 'Corps-Déplacer/Copier1[1]', #136 ) ;
#279 = ORIENTED_EDGE ( 'NONE', *, *, #252, .T. ) ;
#280 =( LENGTH_UNIT ( ) NAMED_UNIT ( * ) SI_UNIT ( .MILLI., .METRE. ) );
#281 = ORIENTED_EDGE ( 'NONE', *, *, #294, .T. ) ;
#282 = ORIENTED_EDGE ( 'NONE', *, *, #36, .T. ) ;
#283 = EDGE_CURVE ( 'NONE', #216, #216, #31, .T. ) ;
#284 = AXIS2_PLACEMENT_3D ( 'NONE', #98, #142, #215 ) ;
#285 = ORIENTED_EDGE ( 'NONE', *, *, #232, .T. ) ;
#286 = CARTESIAN_POINT ( 'NONE',  ( 1.735266225405037467E-13, 1.499999999999995559, 49.70000000000000284 ) ) ;
#287 = FACE_OUTER_BOUND ( 'NONE', #64, .T. ) ;
#288 = EDGE_CURVE ( 'NONE', #211, #211, #89, .T. ) ;
#289 = DIRECTION ( 'NONE',  ( 3.491481338843133355E-15, -1.224646799147353207E-16, 1.000000000000000000 ) ) ;
#290 = CARTESIAN_POINT ( 'NONE',  ( 0.0000000000000000000, 0.0000000000000000000, 0.0000000000000000000 ) ) ;
#291 = DIRECTION ( 'NONE',  ( -3.491481338843133355E-15, 1.224646799147353207E-16, -1.000000000000000000 ) ) ;
#292 = PRODUCT_DEFINITION_SHAPE ( 'NONE', 'NONE',  #201 ) ;
#293 = VERTEX_POINT ( 'NONE', #262 ) ;
#294 = EDGE_CURVE ( 'NONE', #256, #256, #253, .T. ) ;
#295 = FACE_BOUND ( 'NONE', #51, .T. ) ;
#296 = SECURITY_CLASSIFICATION_LEVEL ( 'unclassified' ) ;
#297 = FACE_OUTER_BOUND ( 'NONE', #208, .T. ) ;
#298 = PERSON_AND_ORGANIZATION_ROLE ( 'classification_officer' ) ;
#299 = APPROVAL_ROLE ( '' ) ;
#300 = AXIS2_PLACEMENT_3D ( 'NONE', #119, #222, #190 ) ;
#301 = DIRECTION ( 'NONE',  ( -3.491481338843133355E-15, 1.224646799147353207E-16, -1.000000000000000000 ) ) ;
#302 = AXIS2_PLACEMENT_3D ( 'NONE', #225, #246, #15 ) ;
#303 = ORIENTED_EDGE ( 'NONE', *, *, #131, .T. ) ;
ENDSEC;
END-ISO-10303-21;
