ISO-10303-21;
HEADER;
FILE_DESCRIPTION (( 'STEP AP203' ),
    '1' );
FILE_NAME ('200125.step',
    '2021-11-30T08:32:35',
    ( '' ),
    ( '' ),
    'SwSTEP 2.0',
    'SolidWorks 2019',
    '' );
FILE_SCHEMA (( 'CONFIG_CONTROL_DESIGN' ));
ENDSEC;

DATA;
#1 = AXIS2_PLACEMENT_3D ( 'NONE', #140, #54, #100 ) ;
#2 = DIRECTION ( 'NONE',  ( -3.491481338843133355E-15, 1.224646799147353207E-16, -1.000000000000000000 ) ) ;
#3 = CONICAL_SURFACE ( 'NONE', #270, 1.200000000000001732, 0.7853981633974453924 ) ;
#4 = FACE_OUTER_BOUND ( 'NONE', #80, .T. ) ;
#5 = APPROVAL_STATUS ( 'not_yet_approved' ) ;
#6 = PLANE ( 'NONE',  #24 ) ;
#7 = CC_DESIGN_DATE_AND_TIME_ASSIGNMENT ( #83, #272, ( #118 ) ) ;
#8 = APPROVAL_PERSON_ORGANIZATION ( #166, #226, #208 ) ;
#9 = ORIENTED_EDGE ( 'NONE', *, *, #204, .T. ) ;
#10 = ADVANCED_FACE ( 'NONE', ( #60 ), #6, .T. ) ;
#11 = VERTEX_POINT ( 'NONE', #108 ) ;
#12 = CC_DESIGN_PERSON_AND_ORGANIZATION_ASSIGNMENT ( #224, #114, ( #277 ) ) ;
#13 = EDGE_LOOP ( 'NONE', ( #9 ) ) ;
#14 = AXIS2_PLACEMENT_3D ( 'NONE', #131, #225, #49 ) ;
#15 = EDGE_CURVE ( 'NONE', #266, #266, #287, .T. ) ;
#16 = PLANE ( 'NONE',  #84 ) ;
#17 = EDGE_LOOP ( 'NONE', ( #183 ) ) ;
#18 = VERTEX_POINT ( 'NONE', #20 ) ;
#19 = CARTESIAN_POINT ( 'NONE',  ( 2.506627765991135921E-14, -8.792066668447524607E-16, 7.179267258583376332 ) ) ;
#20 = CARTESIAN_POINT ( 'NONE',  ( -1.892735826383161356E-31, 0.6341624327025948693, -5.421010862427520937E-17 ) ) ;
#21 = DIRECTION ( 'NONE',  ( -3.491481338843133355E-15, 1.224646799147353207E-16, -1.000000000000000000 ) ) ;
#22 = EDGE_CURVE ( 'NONE', #293, #293, #238, .T. ) ;
#23 = FACE_OUTER_BOUND ( 'NONE', #35, .T. ) ;
#24 = AXIS2_PLACEMENT_3D ( 'NONE', #75, #119, #162 ) ;
#25 = PLANE ( 'NONE',  #214 ) ;
#26 = AXIS2_PLACEMENT_3D ( 'NONE', #135, #21, #177 ) ;
#27 = CARTESIAN_POINT ( 'NONE',  ( 5.358479882634335789E-14, -1.879501735712543302E-15, 15.34729635533384595 ) ) ;
#28 = DIRECTION ( 'NONE',  ( 0.0000000000000000000, 1.000000000000000000, 0.0000000000000000000 ) ) ;
#29 = ORIENTED_EDGE ( 'NONE', *, *, #295, .F. ) ;
#30 = ADVANCED_FACE ( 'NONE', ( #53, #23 ), #228, .T. ) ;
#31 = ORIENTED_EDGE ( 'NONE', *, *, #159, .T. ) ;
#32 = CIRCLE ( 'NONE', #164, 0.7784999999999999698 ) ;
#33 = CIRCLE ( 'NONE', #82, 0.6749999999999999334 ) ;
#34 = CIRCLE ( 'NONE', #14, 0.6341624327025948693 ) ;
#35 = EDGE_LOOP ( 'NONE', ( #197 ) ) ;
#36 = APPROVAL_STATUS ( 'not_yet_approved' ) ;
#37 = DIRECTION ( 'NONE',  ( -3.491481338843133355E-15, 1.224646799147353207E-16, -1.000000000000000000 ) ) ;
#38 = EDGE_LOOP ( 'NONE', ( #258 ) ) ;
#39 = CC_DESIGN_APPROVAL ( #99, ( #215 ) ) ;
#40 = APPROVAL_DATE_TIME ( #184, #237 ) ;
#41 = FACE_OUTER_BOUND ( 'NONE', #264, .T. ) ;
#42 = APPROVAL_ROLE ( '' ) ;
#43 = CARTESIAN_POINT ( 'NONE',  ( 5.237222008264700033E-14, -1.836970198721029589E-15, 15.00000000000000000 ) ) ;
#44 = PERSON_AND_ORGANIZATION_ROLE ( 'design_supplier' ) ;
#45 = AXIS2_PLACEMENT_3D ( 'NONE', #19, #149, #248 ) ;
#46 = LOCAL_TIME ( 9, 32, 35.00000000000000000, #246 ) ;
#47 = SHAPE_DEFINITION_REPRESENTATION ( #216, #101 ) ;
#48 = ADVANCED_FACE ( 'NONE', ( #206, #209 ), #104, .T. ) ;
#49 = DIRECTION ( 'NONE',  ( 4.275831445896958607E-31, 1.000000000000000000, 1.224646799147353454E-16 ) ) ;
#50 = DIRECTION ( 'NONE',  ( -4.947796902728935285E-31, -1.000000000000000000, -1.392681017964682950E-16 ) ) ;
#51 = DIRECTION ( 'NONE',  ( 0.0000000000000000000, 1.000000000000000000, 0.0000000000000000000 ) ) ;
#52 = CYLINDRICAL_SURFACE ( 'NONE', #296, 1.499999999999998890 ) ;
#53 = FACE_OUTER_BOUND ( 'NONE', #243, .T. ) ;
#54 = DIRECTION ( 'NONE',  ( -3.491481338843133355E-15, 1.224646799147353207E-16, -1.000000000000000000 ) ) ;
#55 = APPLICATION_CONTEXT ( 'configuration controlled 3d designs of mechanical parts and assemblies' ) ;
#56 = EDGE_LOOP ( 'NONE', ( #113 ) ) ;
#57 = ADVANCED_FACE ( 'NONE', ( #157, #256 ), #81, .T. ) ;
#58 = CLOSED_SHELL ( 'NONE', ( #137, #57, #30, #88, #109, #79, #269, #210 ) ) ;
#59 = CIRCLE ( 'NONE', #45, 0.6750000000000007105 ) ;
#60 = FACE_OUTER_BOUND ( 'NONE', #195, .T. ) ;
#61 = CALENDAR_DATE ( 2021, 30, 11 ) ;
#62 = PERSON_AND_ORGANIZATION ( #193, #174 ) ;
#63 = CC_DESIGN_PERSON_AND_ORGANIZATION_ASSIGNMENT ( #290, #85, ( #118 ) ) ;
#64 = CARTESIAN_POINT ( 'NONE',  ( -2.302153748969714966E-31, 8.074868361619242234E-33, -6.593630397957418230E-17 ) ) ;
#65 = CC_DESIGN_APPROVAL ( #237, ( #118 ) ) ;
#66 = COORDINATED_UNIVERSAL_TIME_OFFSET ( 1, 0, .AHEAD. ) ;
#67 = ORIENTED_EDGE ( 'NONE', *, *, #194, .F. ) ;
#68 = DIRECTION ( 'NONE',  ( -3.491481338843133355E-15, 1.224646799147353207E-16, -1.000000000000000000 ) ) ;
#69 = DIRECTION ( 'NONE',  ( 3.491481338843133355E-15, -1.224646799147353207E-16, 1.000000000000000000 ) ) ;
#70 = VERTEX_POINT ( 'NONE', #278 ) ;
#71 = DIRECTION ( 'NONE',  ( -3.491481338843133355E-15, 1.224646799147353207E-16, -1.000000000000000000 ) ) ;
#72 = EDGE_CURVE ( 'NONE', #297, #297, #121, .T. ) ;
#73 = FACE_OUTER_BOUND ( 'NONE', #175, .T. ) ;
#74 = CONICAL_SURFACE ( 'NONE', #260, 0.7784999999999990816, 0.5235987755982923764 ) ;
#75 = CARTESIAN_POINT ( 'NONE',  ( 2.444036937190193349E-14, 5.837814954011268067E-33, 7.000000000000000000 ) ) ;
#76 = CC_DESIGN_SECURITY_CLASSIFICATION ( #277, ( #215 ) ) ;
#77 = MANIFOLD_SOLID_BREP ( 'Corps-Déplacer/Copier1[1]', #58 ) ;
#78 = DIRECTION ( 'NONE',  ( 3.491481338843133355E-15, -1.224646799147353207E-16, 1.000000000000000000 ) ) ;
#79 = ADVANCED_FACE ( 'NONE', ( #95, #4 ), #52, .T. ) ;
#80 = EDGE_LOOP ( 'NONE', ( #129 ) ) ;
#81 = CONICAL_SURFACE ( 'NONE', #249, 0.7784999999999999698, 0.5235987755983018133 ) ;
#82 = AXIS2_PLACEMENT_3D ( 'NONE', #43, #37, #153 ) ;
#83 = DATE_AND_TIME ( #61, #169 ) ;
#84 = AXIS2_PLACEMENT_3D ( 'NONE', #274, #68, #221 ) ;
#85 = PERSON_AND_ORGANIZATION_ROLE ( 'creator' ) ;
#86 = FACE_OUTER_BOUND ( 'NONE', #285, .T. ) ;
#87 = EDGE_LOOP ( 'NONE', ( #106 ) ) ;
#88 = ADVANCED_FACE ( 'NONE', ( #257, #283 ), #259, .F. ) ;
#89 = PERSON_AND_ORGANIZATION ( #193, #174 ) ;
#90 = CARTESIAN_POINT ( 'NONE',  ( 5.358479882634335789E-14, 0.7053844939755791188, 15.34729635533384595 ) ) ;
#91 = AXIS2_PLACEMENT_3D ( 'NONE', #213, #279, #115 ) ;
#92 = DIRECTION ( 'NONE',  ( 1.000000000000000000, 0.0000000000000000000, 0.0000000000000000000 ) ) ;
#93 = ORIENTED_EDGE ( 'NONE', *, *, #72, .F. ) ;
#94 = DIRECTION ( 'NONE',  ( -3.491481338843133355E-15, 1.224646799147353207E-16, -1.000000000000000000 ) ) ;
#95 = FACE_OUTER_BOUND ( 'NONE', #145, .T. ) ;
#96 = CALENDAR_DATE ( 2021, 30, 11 ) ;
#97 = VERTEX_POINT ( 'NONE', #188 ) ;
#98 = DIRECTION ( 'NONE',  ( -3.491481338843133355E-15, 1.224646799147353207E-16, -1.000000000000000000 ) ) ;
#99 = APPROVAL ( #36, 'UNSPECIFIED' ) ;
#100 = DIRECTION ( 'NONE',  ( 4.275831445896958607E-31, 1.000000000000000000, 1.224646799147353207E-16 ) ) ;
#101 = ADVANCED_BREP_SHAPE_REPRESENTATION ( '200125', ( #77, #275, #189 ), #126 ) ;
#102 = DIRECTION ( 'NONE',  ( -3.491481338843133355E-15, 1.224646799147353207E-16, -1.000000000000000000 ) ) ;
#103 = AXIS2_PLACEMENT_3D ( 'NONE', #27, #138, #276 ) ;
#104 = CYLINDRICAL_SURFACE ( 'NONE', #91, 0.7784999999999995257 ) ;
#105 = CC_DESIGN_PERSON_AND_ORGANIZATION_ASSIGNMENT ( #247, #44, ( #215 ) ) ;
#106 = ORIENTED_EDGE ( 'NONE', *, *, #72, .T. ) ;
#107 = AXIS2_PLACEMENT_3D ( 'NONE', #136, #102, #302 ) ;
#108 = CARTESIAN_POINT ( 'NONE',  ( 1.745740669421566678E-13, 1.199999999999995515, 50.00000000000000000 ) ) ;
#109 = ADVANCED_FACE ( 'NONE', ( #120, #235 ), #202, .T. ) ;
#110 =( LENGTH_UNIT ( ) NAMED_UNIT ( * ) SI_UNIT ( .MILLI., .METRE. ) );
#111 = CARTESIAN_POINT ( 'NONE',  ( 1.745740669421566678E-13, -6.123233995736766085E-15, 50.00000000000000000 ) ) ;
#112 = DIRECTION ( 'NONE',  ( 4.947796902728935285E-31, 1.000000000000000000, 1.392681017964682950E-16 ) ) ;
#113 = ORIENTED_EDGE ( 'NONE', *, *, #284, .F. ) ;
#114 = PERSON_AND_ORGANIZATION_ROLE ( 'classification_officer' ) ;
#115 = DIRECTION ( 'NONE',  ( 4.275831445896958607E-31, 1.000000000000000000, 1.224646799147353207E-16 ) ) ;
#116 = DIRECTION ( 'NONE',  ( 4.275831445896958607E-31, 1.000000000000000000, 1.224646799147353207E-16 ) ) ;
#117 = CARTESIAN_POINT ( 'NONE',  ( 0.0000000000000000000, 0.0000000000000000000, 0.0000000000000000000 ) ) ;
#118 = PRODUCT_DEFINITION ( 'UNKNOWN', '', #215, #199 ) ;
#119 = DIRECTION ( 'NONE',  ( 3.491481338843133355E-15, -1.224646799147353207E-16, 1.000000000000000000 ) ) ;
#120 = FACE_BOUND ( 'NONE', #38, .T. ) ;
#121 = CIRCLE ( 'NONE', #107, 1.499999999999996447 ) ;
#122 = ORIENTED_EDGE ( 'NONE', *, *, #159, .F. ) ;
#123 = EDGE_LOOP ( 'NONE', ( #267 ) ) ;
#124 = APPROVAL_ROLE ( '' ) ;
#125 = CALENDAR_DATE ( 2021, 30, 11 ) ;
#126 =( GEOMETRIC_REPRESENTATION_CONTEXT ( 3 ) GLOBAL_UNCERTAINTY_ASSIGNED_CONTEXT ( ( #242 ) ) GLOBAL_UNIT_ASSIGNED_CONTEXT ( ( #110, #220, #300 ) ) REPRESENTATION_CONTEXT ( 'NONE', 'WORKASPACE' ) );
#127 = FACE_BOUND ( 'NONE', #13, .T. ) ;
#128 = PERSON_AND_ORGANIZATION_ROLE ( 'creator' ) ;
#129 = ORIENTED_EDGE ( 'NONE', *, *, #295, .T. ) ;
#130 = CARTESIAN_POINT ( 'NONE',  ( 8.728703347107833388E-16, 0.7784999999999990816, 0.2500000000000000000 ) ) ;
#131 = CARTESIAN_POINT ( 'NONE',  ( -4.604307497939429932E-31, 1.614973672323848447E-32, -1.318726079591483646E-16 ) ) ;
#132 = SECURITY_CLASSIFICATION_LEVEL ( 'unclassified' ) ;
#133 = DIRECTION ( 'NONE',  ( 0.0000000000000000000, 1.000000000000000000, 0.0000000000000000000 ) ) ;
#134 = CIRCLE ( 'NONE', #26, 1.500000000000001554 ) ;
#135 = CARTESIAN_POINT ( 'NONE',  ( 1.735266225405037467E-13, -6.086494591762345225E-15, 49.70000000000000284 ) ) ;
#136 = CARTESIAN_POINT ( 'NONE',  ( 6.931911923319508617E-14, -2.431387404086026471E-15, 19.85378482823661983 ) ) ;
#137 = ADVANCED_FACE ( 'NONE', ( #191 ), #192, .F. ) ;
#138 = DIRECTION ( 'NONE',  ( -3.491481338843133355E-15, 1.224646799147353207E-16, -1.000000000000000000 ) ) ;
#139 = AXIS2_PLACEMENT_3D ( 'NONE', #212, #254, #28 ) ;
#140 = CARTESIAN_POINT ( 'NONE',  ( 5.237222008264700033E-14, -1.734723475976807094E-15, 15.00000000000000000 ) ) ;
#141 = DATE_TIME_ROLE ( 'classification_date' ) ;
#142 = ADVANCED_FACE ( 'NONE', ( #143, #73 ), #74, .T. ) ;
#143 = FACE_BOUND ( 'NONE', #56, .T. ) ;
#144 = AXIS2_PLACEMENT_3D ( 'NONE', #271, #94, #112 ) ;
#145 = EDGE_LOOP ( 'NONE', ( #93 ) ) ;
#146 = EDGE_LOOP ( 'NONE', ( #67 ) ) ;
#147 = CC_DESIGN_DATE_AND_TIME_ASSIGNMENT ( #229, #141, ( #277 ) ) ;
#148 = APPROVAL_DATE_TIME ( #152, #99 ) ;
#149 = DIRECTION ( 'NONE',  ( -3.491481338843133355E-15, 1.224646799147353207E-16, -1.000000000000000000 ) ) ;
#150 = CC_DESIGN_PERSON_AND_ORGANIZATION_ASSIGNMENT ( #244, #128, ( #215 ) ) ;
#151 = MECHANICAL_CONTEXT ( 'NONE', #55, 'mechanical' ) ;
#152 = DATE_AND_TIME ( #125, #182 ) ;
#153 = DIRECTION ( 'NONE',  ( 0.0000000000000000000, 1.000000000000000000, 0.0000000000000000000 ) ) ;
#154 = CIRCLE ( 'NONE', #261, 1.200000000000001732 ) ;
#155 = DIRECTION ( 'NONE',  ( -3.491481338843133355E-15, 1.224646799147353207E-16, -1.000000000000000000 ) ) ;
#156 = CC_DESIGN_APPROVAL ( #226, ( #277 ) ) ;
#157 = FACE_BOUND ( 'NONE', #168, .T. ) ;
#158 = APPLICATION_CONTEXT ( 'configuration controlled 3d designs of mechanical parts and assemblies' ) ;
#159 = EDGE_CURVE ( 'NONE', #97, #97, #32, .T. ) ;
#160 = VERTEX_POINT ( 'NONE', #239 ) ;
#161 = CARTESIAN_POINT ( 'NONE',  ( 6.931911923319508617E-14, -2.431387404086026471E-15, 19.85378482823661983 ) ) ;
#162 = DIRECTION ( 'NONE',  ( -4.275831445896958607E-31, -1.000000000000000000, -1.224646799147353207E-16 ) ) ;
#163 = AXIS2_PLACEMENT_3D ( 'NONE', #187, #69, #281 ) ;
#164 = AXIS2_PLACEMENT_3D ( 'NONE', #190, #253, #51 ) ;
#165 = CARTESIAN_POINT ( 'NONE',  ( 8.728703347107829444E-16, -3.061616997868381785E-17, 0.2499999999999998890 ) ) ;
#166 = PERSON_AND_ORGANIZATION ( #193, #174 ) ;
#167 = DIRECTION ( 'NONE',  ( 3.491481338843133355E-15, -1.224646799147353207E-16, 1.000000000000000000 ) ) ;
#168 = EDGE_LOOP ( 'NONE', ( #273 ) ) ;
#169 = LOCAL_TIME ( 9, 32, 35.00000000000000000, #176 ) ;
#170 = ADVANCED_FACE ( 'NONE', ( #230 ), #25, .F. ) ;
#171 = ORIENTED_EDGE ( 'NONE', *, *, #204, .F. ) ;
#172 = ORIENTED_EDGE ( 'NONE', *, *, #241, .F. ) ;
#173 = EDGE_CURVE ( 'NONE', #70, #70, #59, .T. ) ;
#174 = ORGANIZATION ( 'UNSPECIFIED', 'UNSPECIFIED', '' ) ;
#175 = EDGE_LOOP ( 'NONE', ( #196 ) ) ;
#176 = COORDINATED_UNIVERSAL_TIME_OFFSET ( 1, 0, .AHEAD. ) ;
#177 = DIRECTION ( 'NONE',  ( 0.0000000000000000000, 1.000000000000000000, 0.0000000000000000000 ) ) ;
#178 = CARTESIAN_POINT ( 'NONE',  ( 0.0000000000000000000, 0.0000000000000000000, 0.0000000000000000000 ) ) ;
#179 = EDGE_LOOP ( 'NONE', ( #122 ) ) ;
#180 = VERTEX_POINT ( 'NONE', #294 ) ;
#181 = PRODUCT ( '200125', '200125', '', ( #151 ) ) ;
#182 = LOCAL_TIME ( 9, 32, 35.00000000000000000, #66 ) ;
#183 = ORIENTED_EDGE ( 'NONE', *, *, #15, .T. ) ;
#184 = DATE_AND_TIME ( #292, #46 ) ;
#185 = DIRECTION ( 'NONE',  ( -3.491481338843133355E-15, 1.224646799147353207E-16, -1.000000000000000000 ) ) ;
#186 = CALENDAR_DATE ( 2021, 30, 11 ) ;
#187 = CARTESIAN_POINT ( 'NONE',  ( 2.444036937190193349E-14, 5.837814954011268067E-33, 7.000000000000000000 ) ) ;
#188 = CARTESIAN_POINT ( 'NONE',  ( 2.444036937190193349E-14, 0.7784999999999990816, 7.000000000000000000 ) ) ;
#189 = AXIS2_PLACEMENT_3D ( 'NONE', #178, #201, #92 ) ;
#190 = CARTESIAN_POINT ( 'NONE',  ( 2.444036937190193349E-14, -8.572527594031473190E-16, 7.000000000000000000 ) ) ;
#191 = FACE_OUTER_BOUND ( 'NONE', #288, .T. ) ;
#192 = PLANE ( 'NONE',  #163 ) ;
#193 = PERSON ( 'UNSPECIFIED', 'UNSPECIFIED', 'UNSPECIFIED', ('UNSPECIFIED'), ('UNSPECIFIED'), ('UNSPECIFIED') ) ;
#194 = EDGE_CURVE ( 'NONE', #160, #160, #33, .T. ) ;
#195 = EDGE_LOOP ( 'NONE', ( #298 ) ) ;
#196 = ORIENTED_EDGE ( 'NONE', *, *, #241, .T. ) ;
#197 = ORIENTED_EDGE ( 'NONE', *, *, #173, .F. ) ;
#198 = PERSON_AND_ORGANIZATION_ROLE ( 'design_owner' ) ;
#199 = DESIGN_CONTEXT ( 'detailed design', #158, 'design' ) ;
#200 = CARTESIAN_POINT ( 'NONE',  ( 2.444036937190193349E-14, 0.7784999999999990816, 7.000000000000000000 ) ) ;
#201 = DIRECTION ( 'NONE',  ( 0.0000000000000000000, 0.0000000000000000000, 1.000000000000000000 ) ) ;
#202 = CONICAL_SURFACE ( 'NONE', #207, 1.499999999999996447, 0.1745329251994260644 ) ;
#203 = COORDINATED_UNIVERSAL_TIME_OFFSET ( 1, 0, .AHEAD. ) ;
#204 = EDGE_CURVE ( 'NONE', #11, #11, #154, .T. ) ;
#205 = DIRECTION ( 'NONE',  ( 0.0000000000000000000, 1.000000000000000000, 0.0000000000000000000 ) ) ;
#206 = FACE_OUTER_BOUND ( 'NONE', #262, .T. ) ;
#207 = AXIS2_PLACEMENT_3D ( 'NONE', #161, #167, #232 ) ;
#208 = APPROVAL_ROLE ( '' ) ;
#209 = FACE_OUTER_BOUND ( 'NONE', #17, .T. ) ;
#210 = ADVANCED_FACE ( 'NONE', ( #41 ), #16, .F. ) ;
#211 = DATE_AND_TIME ( #186, #289 ) ;
#212 = CARTESIAN_POINT ( 'NONE',  ( 2.444036937190193349E-14, -8.572527594031473190E-16, 7.000000000000000000 ) ) ;
#213 = CARTESIAN_POINT ( 'NONE',  ( 0.0000000000000000000, 0.0000000000000000000, 0.0000000000000000000 ) ) ;
#214 = AXIS2_PLACEMENT_3D ( 'NONE', #64, #301, #227 ) ;
#215 = PRODUCT_DEFINITION_FORMATION_WITH_SPECIFIED_SOURCE ( 'ANY', '', #181, .NOT_KNOWN. ) ;
#216 = PRODUCT_DEFINITION_SHAPE ( 'NONE', 'NONE',  #118 ) ;
#217 = ORIENTED_EDGE ( 'NONE', *, *, #284, .T. ) ;
#218 = VERTEX_POINT ( 'NONE', #130 ) ;
#219 = CC_DESIGN_PERSON_AND_ORGANIZATION_ASSIGNMENT ( #89, #198, ( #181 ) ) ;
#220 =( NAMED_UNIT ( * ) PLANE_ANGLE_UNIT ( ) SI_UNIT ( $, .RADIAN. ) );
#221 = DIRECTION ( 'NONE',  ( 4.275831445896958607E-31, 1.000000000000000000, 1.224646799147353207E-16 ) ) ;
#222 = PRODUCT_RELATED_PRODUCT_CATEGORY ( 'detail', '', ( #181 ) ) ;
#223 = APPROVAL_STATUS ( 'not_yet_approved' ) ;
#224 = PERSON_AND_ORGANIZATION ( #193, #174 ) ;
#225 = DIRECTION ( 'NONE',  ( -3.491481338843133355E-15, 1.224646799147353207E-16, -1.000000000000000000 ) ) ;
#226 = APPROVAL ( #5, 'UNSPECIFIED' ) ;
#227 = DIRECTION ( 'NONE',  ( -4.275831445896958607E-31, -1.000000000000000000, -1.224646799147353207E-16 ) ) ;
#228 = CYLINDRICAL_SURFACE ( 'NONE', #263, 0.6750000000000002665 ) ;
#229 = DATE_AND_TIME ( #96, #250 ) ;
#230 = FACE_OUTER_BOUND ( 'NONE', #236, .T. ) ;
#231 = APPROVAL_PERSON_ORGANIZATION ( #268, #99, #42 ) ;
#232 = DIRECTION ( 'NONE',  ( 0.0000000000000000000, -1.000000000000000000, 0.0000000000000000000 ) ) ;
#233 = APPROVAL_DATE_TIME ( #211, #226 ) ;
#234 = CARTESIAN_POINT ( 'NONE',  ( 0.0000000000000000000, 0.0000000000000000000, 0.0000000000000000000 ) ) ;
#235 = FACE_OUTER_BOUND ( 'NONE', #87, .T. ) ;
#236 = EDGE_LOOP ( 'NONE', ( #217 ) ) ;
#237 = APPROVAL ( #223, 'UNSPECIFIED' ) ;
#238 = CIRCLE ( 'NONE', #103, 0.7053844939755808952 ) ;
#239 = CARTESIAN_POINT ( 'NONE',  ( 5.237222008264700033E-14, 0.6749999999999980460, 15.00000000000000000 ) ) ;
#240 = APPLICATION_PROTOCOL_DEFINITION ( 'international standard', 'config_control_design', 1994, #55 ) ;
#241 = EDGE_CURVE ( 'NONE', #218, #218, #299, .T. ) ;
#242 = UNCERTAINTY_MEASURE_WITH_UNIT (LENGTH_MEASURE( 1.000000000000000082E-05 ), #110, 'distance_accuracy_value', 'NONE');
#243 = EDGE_LOOP ( 'NONE', ( #291 ) ) ;
#244 = PERSON_AND_ORGANIZATION ( #193, #174 ) ;
#245 = CARTESIAN_POINT ( 'NONE',  ( 1.745740669421566678E-13, -6.123233995736766085E-15, 50.00000000000000000 ) ) ;
#246 = COORDINATED_UNIVERSAL_TIME_OFFSET ( 1, 0, .AHEAD. ) ;
#247 = PERSON_AND_ORGANIZATION ( #193, #174 ) ;
#248 = DIRECTION ( 'NONE',  ( 0.0000000000000000000, 1.000000000000000000, 0.0000000000000000000 ) ) ;
#249 = AXIS2_PLACEMENT_3D ( 'NONE', #252, #2, #205 ) ;
#250 = LOCAL_TIME ( 9, 32, 35.00000000000000000, #255 ) ;
#251 = DIRECTION ( 'NONE',  ( 0.0000000000000000000, 1.000000000000000000, 0.0000000000000000000 ) ) ;
#252 = CARTESIAN_POINT ( 'NONE',  ( 2.444036937190193349E-14, -8.572527594031473190E-16, 7.000000000000000000 ) ) ;
#253 = DIRECTION ( 'NONE',  ( -3.491481338843133355E-15, 1.224646799147353207E-16, -1.000000000000000000 ) ) ;
#254 = DIRECTION ( 'NONE',  ( -3.491481338843133355E-15, 1.224646799147353207E-16, -1.000000000000000000 ) ) ;
#255 = COORDINATED_UNIVERSAL_TIME_OFFSET ( 1, 0, .AHEAD. ) ;
#256 = FACE_OUTER_BOUND ( 'NONE', #179, .T. ) ;
#257 = FACE_OUTER_BOUND ( 'NONE', #146, .T. ) ;
#258 = ORIENTED_EDGE ( 'NONE', *, *, #22, .F. ) ;
#259 = TOROIDAL_SURFACE ( 'NONE', #1, 2.674999999999999822, 2.000000000000000000 ) ;
#260 = AXIS2_PLACEMENT_3D ( 'NONE', #165, #78, #50 ) ;
#261 = AXIS2_PLACEMENT_3D ( 'NONE', #245, #185, #133 ) ;
#262 = EDGE_LOOP ( 'NONE', ( #172 ) ) ;
#263 = AXIS2_PLACEMENT_3D ( 'NONE', #117, #71, #116 ) ;
#264 = EDGE_LOOP ( 'NONE', ( #171 ) ) ;
#265 = APPLICATION_PROTOCOL_DEFINITION ( 'international standard', 'config_control_design', 1994, #158 ) ;
#266 = VERTEX_POINT ( 'NONE', #200 ) ;
#267 = ORIENTED_EDGE ( 'NONE', *, *, #22, .T. ) ;
#268 = PERSON_AND_ORGANIZATION ( #193, #174 ) ;
#269 = ADVANCED_FACE ( 'NONE', ( #86, #127 ), #3, .T. ) ;
#270 = AXIS2_PLACEMENT_3D ( 'NONE', #111, #155, #251 ) ;
#271 = CARTESIAN_POINT ( 'NONE',  ( 8.728703347107829444E-16, -3.061616997868381785E-17, 0.2499999999999998890 ) ) ;
#272 = DATE_TIME_ROLE ( 'creation_date' ) ;
#273 = ORIENTED_EDGE ( 'NONE', *, *, #173, .T. ) ;
#274 = CARTESIAN_POINT ( 'NONE',  ( 1.745740669421566678E-13, 8.998558695971067645E-33, 50.00000000000000000 ) ) ;
#275 = MANIFOLD_SOLID_BREP ( 'Corps-Déplacer/Copier1[2]', #286 ) ;
#276 = DIRECTION ( 'NONE',  ( 0.0000000000000000000, 1.000000000000000000, 0.0000000000000000000 ) ) ;
#277 = SECURITY_CLASSIFICATION ( '', '', #132 ) ;
#278 = CARTESIAN_POINT ( 'NONE',  ( 2.506627765991135921E-14, 0.6749999999999998224, 7.179267258583376332 ) ) ;
#279 = DIRECTION ( 'NONE',  ( -3.491481338843133355E-15, 1.224646799147353207E-16, -1.000000000000000000 ) ) ;
#280 = DIRECTION ( 'NONE',  ( 4.275831445896958607E-31, 1.000000000000000000, 1.224646799147353454E-16 ) ) ;
#281 = DIRECTION ( 'NONE',  ( -4.275831445896958607E-31, -1.000000000000000000, -1.224646799147353207E-16 ) ) ;
#282 = APPROVAL_PERSON_ORGANIZATION ( #62, #237, #124 ) ;
#283 = FACE_OUTER_BOUND ( 'NONE', #123, .T. ) ;
#284 = EDGE_CURVE ( 'NONE', #18, #18, #34, .T. ) ;
#285 = EDGE_LOOP ( 'NONE', ( #29 ) ) ;
#286 = CLOSED_SHELL ( 'NONE', ( #170, #142, #48, #10 ) ) ;
#287 = CIRCLE ( 'NONE', #139, 0.7784999999999999698 ) ;
#288 = EDGE_LOOP ( 'NONE', ( #31 ) ) ;
#289 = LOCAL_TIME ( 9, 32, 35.00000000000000000, #203 ) ;
#290 = PERSON_AND_ORGANIZATION ( #193, #174 ) ;
#291 = ORIENTED_EDGE ( 'NONE', *, *, #194, .T. ) ;
#292 = CALENDAR_DATE ( 2021, 30, 11 ) ;
#293 = VERTEX_POINT ( 'NONE', #90 ) ;
#294 = CARTESIAN_POINT ( 'NONE',  ( 1.735266225405037467E-13, 1.499999999999995559, 49.70000000000000284 ) ) ;
#295 = EDGE_CURVE ( 'NONE', #180, #180, #134, .T. ) ;
#296 = AXIS2_PLACEMENT_3D ( 'NONE', #234, #98, #280 ) ;
#297 = VERTEX_POINT ( 'NONE', #303 ) ;
#298 = ORIENTED_EDGE ( 'NONE', *, *, #15, .F. ) ;
#299 = CIRCLE ( 'NONE', #144, 0.7784999999999990816 ) ;
#300 =( NAMED_UNIT ( * ) SI_UNIT ( $, .STERADIAN. ) SOLID_ANGLE_UNIT ( ) );
#301 = DIRECTION ( 'NONE',  ( 3.491481338843133355E-15, -1.224646799147353207E-16, 1.000000000000000000 ) ) ;
#302 = DIRECTION ( 'NONE',  ( 0.0000000000000000000, 1.000000000000000000, 0.0000000000000000000 ) ) ;
#303 = CARTESIAN_POINT ( 'NONE',  ( 6.931911923319508617E-14, 1.499999999999994005, 19.85378482823661983 ) ) ;
ENDSEC;
END-ISO-10303-21;
