ISO-10303-21;
HEADER;
FILE_DESCRIPTION (( 'STEP AP203' ),
    '1' );
FILE_NAME ('200124.step',
    '2021-11-30T08:32:34',
    ( '' ),
    ( '' ),
    'SwSTEP 2.0',
    'SolidWorks 2019',
    '' );
FILE_SCHEMA (( 'CONFIG_CONTROL_DESIGN' ));
ENDSEC;

DATA;
#1 = CONICAL_SURFACE ( 'NONE', #107, 0.8284999999999999032, 0.5235987755983022574 ) ;
#2 = DIRECTION ( 'NONE',  ( 0.0000000000000000000, 1.000000000000000000, 0.0000000000000000000 ) ) ;
#3 = CARTESIAN_POINT ( 'NONE',  ( 8.728703347107829444E-16, -3.061616997868381785E-17, 0.2499999999999998890 ) ) ;
#4 = DIRECTION ( 'NONE',  ( -4.275831445896958607E-31, -1.000000000000000000, -1.224646799147353207E-16 ) ) ;
#5 = LOCAL_TIME ( 9, 32, 34.00000000000000000, #235 ) ;
#6 = APPROVAL ( #73, 'UNSPECIFIED' ) ;
#7 =( NAMED_UNIT ( * ) SI_UNIT ( $, .STERADIAN. ) SOLID_ANGLE_UNIT ( ) );
#8 = APPLICATION_PROTOCOL_DEFINITION ( 'international standard', 'config_control_design', 1994, #128 ) ;
#9 = ADVANCED_FACE ( 'NONE', ( #140 ), #229, .T. ) ;
#10 = VERTEX_POINT ( 'NONE', #249 ) ;
#11 = LOCAL_TIME ( 9, 32, 34.00000000000000000, #109 ) ;
#12 = ORIENTED_EDGE ( 'NONE', *, *, #228, .T. ) ;
#13 = CC_DESIGN_PERSON_AND_ORGANIZATION_ASSIGNMENT ( #261, #239, ( #197 ) ) ;
#14 = CARTESIAN_POINT ( 'NONE',  ( 2.444036937190193349E-14, 6.212754899676731100E-33, 7.000000000000000000 ) ) ;
#15 = ADVANCED_BREP_SHAPE_REPRESENTATION ( '200124', ( #150, #46, #65 ), #258 ) ;
#16 = EDGE_LOOP ( 'NONE', ( #12 ) ) ;
#17 = AXIS2_PLACEMENT_3D ( 'NONE', #195, #52, #4 ) ;
#18 = PRODUCT_DEFINITION_SHAPE ( 'NONE', 'NONE',  #29 ) ;
#19 = EDGE_LOOP ( 'NONE', ( #162 ) ) ;
#20 = PERSON_AND_ORGANIZATION ( #116, #110 ) ;
#21 = DIRECTION ( 'NONE',  ( 3.491481338843133355E-15, -1.224646799147353207E-16, 1.000000000000000000 ) ) ;
#22 = EDGE_CURVE ( 'NONE', #155, #155, #275, .T. ) ;
#23 = AXIS2_PLACEMENT_3D ( 'NONE', #58, #218, #289 ) ;
#24 = FACE_BOUND ( 'NONE', #184, .T. ) ;
#25 = FACE_OUTER_BOUND ( 'NONE', #42, .T. ) ;
#26 = CARTESIAN_POINT ( 'NONE',  ( 0.0000000000000000000, 0.0000000000000000000, 0.0000000000000000000 ) ) ;
#27 = CYLINDRICAL_SURFACE ( 'NONE', #247, 1.499999999999999112 ) ;
#28 = APPROVAL_DATE_TIME ( #137, #174 ) ;
#29 = PRODUCT_DEFINITION ( 'UNKNOWN', '', #197, #99 ) ;
#30 = CARTESIAN_POINT ( 'NONE',  ( 7.182054184001240146E-14, -2.519125498363473338E-15, 20.57022073725572398 ) ) ;
#31 = CALENDAR_DATE ( 2021, 30, 11 ) ;
#32 = CIRCLE ( 'NONE', #204, 1.499999999999996669 ) ;
#33 = CARTESIAN_POINT ( 'NONE',  ( 1.745740669421566678E-13, -6.123233995736766085E-15, 50.00000000000000000 ) ) ;
#34 = CARTESIAN_POINT ( 'NONE',  ( 0.0000000000000000000, 0.0000000000000000000, 0.0000000000000000000 ) ) ;
#35 =( NAMED_UNIT ( * ) PLANE_ANGLE_UNIT ( ) SI_UNIT ( $, .RADIAN. ) );
#36 = EDGE_LOOP ( 'NONE', ( #89 ) ) ;
#37 = CARTESIAN_POINT ( 'NONE',  ( 1.745740669421566678E-13, 1.199999999999995515, 50.00000000000000000 ) ) ;
#38 = CYLINDRICAL_SURFACE ( 'NONE', #191, 0.8284999999999994591 ) ;
#39 = AXIS2_PLACEMENT_3D ( 'NONE', #284, #236, #186 ) ;
#40 = ORIENTED_EDGE ( 'NONE', *, *, #181, .T. ) ;
#41 = ADVANCED_FACE ( 'NONE', ( #24, #242 ), #281, .T. ) ;
#42 = EDGE_LOOP ( 'NONE', ( #232 ) ) ;
#43 = DATE_TIME_ROLE ( 'classification_date' ) ;
#44 = EDGE_LOOP ( 'NONE', ( #278 ) ) ;
#45 = APPROVAL_PERSON_ORGANIZATION ( #102, #214, #72 ) ;
#46 = MANIFOLD_SOLID_BREP ( 'Corps-Déplacer/Copier1[2]', #124 ) ;
#47 = FACE_OUTER_BOUND ( 'NONE', #273, .T. ) ;
#48 = EDGE_CURVE ( 'NONE', #290, #290, #81, .T. ) ;
#49 = APPROVAL_DATE_TIME ( #260, #214 ) ;
#50 = CARTESIAN_POINT ( 'NONE',  ( 8.728703347107829444E-16, -3.061616997868381785E-17, 0.2499999999999998890 ) ) ;
#51 = LOCAL_TIME ( 9, 32, 34.00000000000000000, #187 ) ;
#52 = DIRECTION ( 'NONE',  ( 3.491481338843133355E-15, -1.224646799147353207E-16, 1.000000000000000000 ) ) ;
#53 = CONICAL_SURFACE ( 'NONE', #60, 1.499999999999996669, 0.1745329251994263142 ) ;
#54 = ADVANCED_FACE ( 'NONE', ( #212, #170 ), #53, .T. ) ;
#55 = VERTEX_POINT ( 'NONE', #37 ) ;
#56 = DIRECTION ( 'NONE',  ( -3.491481338843133355E-15, 1.224646799147353207E-16, -1.000000000000000000 ) ) ;
#57 = PERSON_AND_ORGANIZATION ( #116, #110 ) ;
#58 = CARTESIAN_POINT ( 'NONE',  ( 2.506627765991136237E-14, -8.792066668447528551E-16, 7.179267258583378108 ) ) ;
#59 = CARTESIAN_POINT ( 'NONE',  ( 5.586370142149013368E-14, 0.7249999999999982014, 16.00000000000000000 ) ) ;
#60 = AXIS2_PLACEMENT_3D ( 'NONE', #192, #21, #283 ) ;
#61 = DIRECTION ( 'NONE',  ( 1.000000000000000000, 0.0000000000000000000, 0.0000000000000000000 ) ) ;
#62 = ORIENTED_EDGE ( 'NONE', *, *, #224, .F. ) ;
#63 = VERTEX_POINT ( 'NONE', #201 ) ;
#64 = EDGE_LOOP ( 'NONE', ( #280 ) ) ;
#65 = AXIS2_PLACEMENT_3D ( 'NONE', #34, #179, #61 ) ;
#66 = ORIENTED_EDGE ( 'NONE', *, *, #168, .T. ) ;
#67 = CC_DESIGN_PERSON_AND_ORGANIZATION_ASSIGNMENT ( #243, #132, ( #29 ) ) ;
#68 = PERSON_AND_ORGANIZATION_ROLE ( 'classification_officer' ) ;
#69 = DIRECTION ( 'NONE',  ( 3.491481338843133355E-15, -1.224646799147353207E-16, 1.000000000000000000 ) ) ;
#70 = ORIENTED_EDGE ( 'NONE', *, *, #211, .F. ) ;
#71 = APPROVAL_STATUS ( 'not_yet_approved' ) ;
#72 = APPROVAL_ROLE ( '' ) ;
#73 = APPROVAL_STATUS ( 'not_yet_approved' ) ;
#74 = EDGE_CURVE ( 'NONE', #225, #225, #276, .T. ) ;
#75 = DIRECTION ( 'NONE',  ( 4.275831445896958607E-31, 1.000000000000000000, 1.224646799147353207E-16 ) ) ;
#76 = AXIS2_PLACEMENT_3D ( 'NONE', #33, #135, #216 ) ;
#77 = DIRECTION ( 'NONE',  ( -3.491481338843133355E-15, 1.224646799147353207E-16, -1.000000000000000000 ) ) ;
#78 = FACE_OUTER_BOUND ( 'NONE', #36, .T. ) ;
#79 = EDGE_CURVE ( 'NONE', #182, #182, #131, .T. ) ;
#80 = DIRECTION ( 'NONE',  ( -3.491481338843133355E-15, 1.224646799147353207E-16, -1.000000000000000000 ) ) ;
#81 = CIRCLE ( 'NONE', #39, 0.7553844939755793852 ) ;
#82 = CARTESIAN_POINT ( 'NONE',  ( -2.925363243851115937E-31, 1.026079301375451258E-32, -8.378573333060990769E-17 ) ) ;
#83 = CARTESIAN_POINT ( 'NONE',  ( 8.728703347107833388E-16, 0.8284999999999990150, 0.2500000000000000000 ) ) ;
#84 = FACE_OUTER_BOUND ( 'NONE', #141, .T. ) ;
#85 = CARTESIAN_POINT ( 'NONE',  ( 2.444036937190193349E-14, 0.8284999999999990150, 7.000000000000000000 ) ) ;
#86 = DIRECTION ( 'NONE',  ( -3.491481338843133355E-15, 1.224646799147353207E-16, -1.000000000000000000 ) ) ;
#87 = CARTESIAN_POINT ( 'NONE',  ( 4.276423536147513034E-47, 0.6841624327025948027, 0.0000000000000000000 ) ) ;
#88 = CIRCLE ( 'NONE', #23, 0.7249999999999995337 ) ;
#89 = ORIENTED_EDGE ( 'NONE', *, *, #228, .F. ) ;
#90 = PERSON_AND_ORGANIZATION ( #116, #110 ) ;
#91 = EDGE_LOOP ( 'NONE', ( #203 ) ) ;
#92 = CARTESIAN_POINT ( 'NONE',  ( 0.0000000000000000000, 0.0000000000000000000, 0.0000000000000000000 ) ) ;
#93 = ADVANCED_FACE ( 'NONE', ( #171 ), #303, .F. ) ;
#94 = ORIENTED_EDGE ( 'NONE', *, *, #120, .T. ) ;
#95 = EDGE_LOOP ( 'NONE', ( #253 ) ) ;
#96 = PRODUCT ( '200124', '200124', '', ( #222 ) ) ;
#97 = ORIENTED_EDGE ( 'NONE', *, *, #48, .F. ) ;
#98 = SECURITY_CLASSIFICATION_LEVEL ( 'unclassified' ) ;
#99 = DESIGN_CONTEXT ( 'detailed design', #128, 'design' ) ;
#100 = DIRECTION ( 'NONE',  ( -3.491481338843133355E-15, 1.224646799147353207E-16, -1.000000000000000000 ) ) ;
#101 = CIRCLE ( 'NONE', #125, 1.200000000000001732 ) ;
#102 = PERSON_AND_ORGANIZATION ( #116, #110 ) ;
#103 = CC_DESIGN_PERSON_AND_ORGANIZATION_ASSIGNMENT ( #90, #274, ( #96 ) ) ;
#104 = DIRECTION ( 'NONE',  ( 4.649197210349398162E-31, 1.000000000000000000, 1.308632676506343692E-16 ) ) ;
#105 = CARTESIAN_POINT ( 'NONE',  ( 5.586370142149013368E-14, -2.168404344971008868E-15, 16.00000000000000000 ) ) ;
#106 = DIRECTION ( 'NONE',  ( -3.491481338843133355E-15, 1.224646799147353207E-16, -1.000000000000000000 ) ) ;
#107 = AXIS2_PLACEMENT_3D ( 'NONE', #114, #80, #199 ) ;
#108 = AXIS2_PLACEMENT_3D ( 'NONE', #14, #69, #122 ) ;
#109 = COORDINATED_UNIVERSAL_TIME_OFFSET ( 1, 0, .AHEAD. ) ;
#110 = ORGANIZATION ( 'UNSPECIFIED', 'UNSPECIFIED', '' ) ;
#111 = FACE_BOUND ( 'NONE', #256, .T. ) ;
#112 = ADVANCED_FACE ( 'NONE', ( #149 ), #240, .F. ) ;
#113 = VERTEX_POINT ( 'NONE', #59 ) ;
#114 = CARTESIAN_POINT ( 'NONE',  ( 2.444036937190193349E-14, -8.572527594031473190E-16, 7.000000000000000000 ) ) ;
#115 = PERSON_AND_ORGANIZATION ( #116, #110 ) ;
#116 = PERSON ( 'UNSPECIFIED', 'UNSPECIFIED', 'UNSPECIFIED', ('UNSPECIFIED'), ('UNSPECIFIED'), ('UNSPECIFIED') ) ;
#117 = AXIS2_PLACEMENT_3D ( 'NONE', #82, #200, #286 ) ;
#118 = ORIENTED_EDGE ( 'NONE', *, *, #120, .F. ) ;
#119 = CARTESIAN_POINT ( 'NONE',  ( 5.707628016518647231E-14, 0.7553844939755774979, 16.34729635533384240 ) ) ;
#120 = EDGE_CURVE ( 'NONE', #55, #55, #101, .T. ) ;
#121 = EDGE_LOOP ( 'NONE', ( #94 ) ) ;
#122 = DIRECTION ( 'NONE',  ( -4.275831445896958607E-31, -1.000000000000000000, -1.224646799147353207E-16 ) ) ;
#123 = APPROVAL_ROLE ( '' ) ;
#124 = CLOSED_SHELL ( 'NONE', ( #194, #41, #285, #9 ) ) ;
#125 = AXIS2_PLACEMENT_3D ( 'NONE', #210, #213, #2 ) ;
#126 = ADVANCED_FACE ( 'NONE', ( #25, #47 ), #266, .F. ) ;
#127 = DIRECTION ( 'NONE',  ( -4.275831445896958607E-31, -1.000000000000000000, -1.224646799147353207E-16 ) ) ;
#128 = APPLICATION_CONTEXT ( 'configuration controlled 3d designs of mechanical parts and assemblies' ) ;
#129 = CARTESIAN_POINT ( 'NONE',  ( 2.444036937190193349E-14, 6.212754899676731100E-33, 7.000000000000000000 ) ) ;
#130 = FACE_OUTER_BOUND ( 'NONE', #44, .T. ) ;
#131 = CIRCLE ( 'NONE', #226, 0.8284999999999990150 ) ;
#132 = PERSON_AND_ORGANIZATION_ROLE ( 'creator' ) ;
#133 = CARTESIAN_POINT ( 'NONE',  ( 5.586370142149013368E-14, -1.959434878635765131E-15, 16.00000000000000000 ) ) ;
#134 = AXIS2_PLACEMENT_3D ( 'NONE', #164, #106, #264 ) ;
#135 = DIRECTION ( 'NONE',  ( -3.491481338843133355E-15, 1.224646799147353207E-16, -1.000000000000000000 ) ) ;
#136 = EDGE_LOOP ( 'NONE', ( #257 ) ) ;
#137 = DATE_AND_TIME ( #31, #295 ) ;
#138 = AXIS2_PLACEMENT_3D ( 'NONE', #26, #86, #193 ) ;
#139 = ORIENTED_EDGE ( 'NONE', *, *, #79, .T. ) ;
#140 = FACE_OUTER_BOUND ( 'NONE', #91, .T. ) ;
#141 = EDGE_LOOP ( 'NONE', ( #62 ) ) ;
#142 = LOCAL_TIME ( 9, 32, 34.00000000000000000, #205 ) ;
#143 = EDGE_LOOP ( 'NONE', ( #139 ) ) ;
#144 = CALENDAR_DATE ( 2021, 30, 11 ) ;
#145 = SHAPE_DEFINITION_REPRESENTATION ( #18, #15 ) ;
#146 = CC_DESIGN_APPROVAL ( #174, ( #29 ) ) ;
#147 = DIRECTION ( 'NONE',  ( 4.275831445896958607E-31, 1.000000000000000000, 1.224646799147353207E-16 ) ) ;
#148 = DIRECTION ( 'NONE',  ( 0.0000000000000000000, 1.000000000000000000, 0.0000000000000000000 ) ) ;
#149 = FACE_OUTER_BOUND ( 'NONE', #19, .T. ) ;
#150 = MANIFOLD_SOLID_BREP ( 'Corps-Déplacer/Copier1[1]', #287 ) ;
#151 = CYLINDRICAL_SURFACE ( 'NONE', #138, 0.7249999999999998668 ) ;
#152 = CIRCLE ( 'NONE', #169, 0.8284999999999999032 ) ;
#153 = COORDINATED_UNIVERSAL_TIME_OFFSET ( 1, 0, .AHEAD. ) ;
#154 = DIRECTION ( 'NONE',  ( -3.491481338843133355E-15, 1.224646799147353207E-16, -1.000000000000000000 ) ) ;
#155 = VERTEX_POINT ( 'NONE', #198 ) ;
#156 = DIRECTION ( 'NONE',  ( 0.0000000000000000000, 1.000000000000000000, 0.0000000000000000000 ) ) ;
#157 = VERTEX_POINT ( 'NONE', #270 ) ;
#158 = AXIS2_PLACEMENT_3D ( 'NONE', #133, #219, #156 ) ;
#159 = FACE_OUTER_BOUND ( 'NONE', #95, .T. ) ;
#160 = APPLICATION_PROTOCOL_DEFINITION ( 'international standard', 'config_control_design', 1994, #190 ) ;
#161 = AXIS2_PLACEMENT_3D ( 'NONE', #129, #188, #127 ) ;
#162 = ORIENTED_EDGE ( 'NONE', *, *, #224, .T. ) ;
#163 = ADVANCED_FACE ( 'NONE', ( #189, #267 ), #151, .T. ) ;
#164 = CARTESIAN_POINT ( 'NONE',  ( 1.735266225405037467E-13, -6.086494591762345225E-15, 49.70000000000000284 ) ) ;
#165 = ORIENTED_EDGE ( 'NONE', *, *, #48, .T. ) ;
#166 = CC_DESIGN_SECURITY_CLASSIFICATION ( #271, ( #197 ) ) ;
#167 = CALENDAR_DATE ( 2021, 30, 11 ) ;
#168 = EDGE_CURVE ( 'NONE', #157, #157, #88, .T. ) ;
#169 = AXIS2_PLACEMENT_3D ( 'NONE', #176, #154, #244 ) ;
#170 = FACE_OUTER_BOUND ( 'NONE', #16, .T. ) ;
#171 = FACE_OUTER_BOUND ( 'NONE', #183, .T. ) ;
#172 = FACE_OUTER_BOUND ( 'NONE', #136, .T. ) ;
#173 = CIRCLE ( 'NONE', #117, 0.6841624327025948027 ) ;
#174 = APPROVAL ( #293, 'UNSPECIFIED' ) ;
#175 = DATE_AND_TIME ( #294, #11 ) ;
#176 = CARTESIAN_POINT ( 'NONE',  ( 2.444036937190193349E-14, -8.572527594031473190E-16, 7.000000000000000000 ) ) ;
#177 = DIRECTION ( 'NONE',  ( -3.491481338843133355E-15, 1.224646799147353207E-16, -1.000000000000000000 ) ) ;
#178 = DIRECTION ( 'NONE',  ( 4.275831445896958607E-31, 1.000000000000000000, 1.224646799147353454E-16 ) ) ;
#179 = DIRECTION ( 'NONE',  ( 0.0000000000000000000, 0.0000000000000000000, 1.000000000000000000 ) ) ;
#180 = CONICAL_SURFACE ( 'NONE', #76, 1.200000000000001732, 0.7853981633974453924 ) ;
#181 = EDGE_CURVE ( 'NONE', #113, #113, #233, .T. ) ;
#182 = VERTEX_POINT ( 'NONE', #83 ) ;
#183 = EDGE_LOOP ( 'NONE', ( #118 ) ) ;
#184 = EDGE_LOOP ( 'NONE', ( #70 ) ) ;
#185 = AXIS2_PLACEMENT_3D ( 'NONE', #105, #282, #75 ) ;
#186 = DIRECTION ( 'NONE',  ( 0.0000000000000000000, 1.000000000000000000, 0.0000000000000000000 ) ) ;
#187 = COORDINATED_UNIVERSAL_TIME_OFFSET ( 1, 0, .AHEAD. ) ;
#188 = DIRECTION ( 'NONE',  ( 3.491481338843133355E-15, -1.224646799147353207E-16, 1.000000000000000000 ) ) ;
#189 = FACE_OUTER_BOUND ( 'NONE', #251, .T. ) ;
#190 = APPLICATION_CONTEXT ( 'configuration controlled 3d designs of mechanical parts and assemblies' ) ;
#191 = AXIS2_PLACEMENT_3D ( 'NONE', #92, #177, #272 ) ;
#192 = CARTESIAN_POINT ( 'NONE',  ( 7.182054184001240146E-14, -2.519125498363473338E-15, 20.57022073725572398 ) ) ;
#193 = DIRECTION ( 'NONE',  ( 4.275831445896957731E-31, 1.000000000000000000, 1.224646799147353207E-16 ) ) ;
#194 = ADVANCED_FACE ( 'NONE', ( #159 ), #265, .F. ) ;
#195 = CARTESIAN_POINT ( 'NONE',  ( -1.462681621925557968E-31, 5.130396506877256289E-33, -4.189286666530495385E-17 ) ) ;
#196 = APPROVAL_PERSON_ORGANIZATION ( #57, #6, #123 ) ;
#197 = PRODUCT_DEFINITION_FORMATION_WITH_SPECIFIED_SOURCE ( 'ANY', '', #96, .NOT_KNOWN. ) ;
#198 = CARTESIAN_POINT ( 'NONE',  ( 1.735266225405037467E-13, 1.499999999999995559, 49.70000000000000284 ) ) ;
#199 = DIRECTION ( 'NONE',  ( 0.0000000000000000000, 1.000000000000000000, 0.0000000000000000000 ) ) ;
#200 = DIRECTION ( 'NONE',  ( -3.491481338843133355E-15, 1.224646799147353207E-16, -1.000000000000000000 ) ) ;
#201 = CARTESIAN_POINT ( 'NONE',  ( 7.182054184001240146E-14, 1.499999999999994005, 20.57022073725572398 ) ) ;
#202 = VERTEX_POINT ( 'NONE', #87 ) ;
#203 = ORIENTED_EDGE ( 'NONE', *, *, #74, .F. ) ;
#204 = AXIS2_PLACEMENT_3D ( 'NONE', #30, #246, #291 ) ;
#205 = COORDINATED_UNIVERSAL_TIME_OFFSET ( 1, 0, .AHEAD. ) ;
#206 = EDGE_LOOP ( 'NONE', ( #296 ) ) ;
#207 = DIRECTION ( 'NONE',  ( -4.649197210349398162E-31, -1.000000000000000000, -1.308632676506343692E-16 ) ) ;
#208 = ADVANCED_FACE ( 'NONE', ( #111, #84 ), #1, .T. ) ;
#209 = CARTESIAN_POINT ( 'NONE',  ( 2.444036937190193349E-14, -8.572527594031473190E-16, 7.000000000000000000 ) ) ;
#210 = CARTESIAN_POINT ( 'NONE',  ( 1.745740669421566678E-13, -6.123233995736766085E-15, 50.00000000000000000 ) ) ;
#211 = EDGE_CURVE ( 'NONE', #202, #202, #173, .T. ) ;
#212 = FACE_BOUND ( 'NONE', #234, .T. ) ;
#213 = DIRECTION ( 'NONE',  ( -3.491481338843133355E-15, 1.224646799147353207E-16, -1.000000000000000000 ) ) ;
#214 = APPROVAL ( #71, 'UNSPECIFIED' ) ;
#215 = CC_DESIGN_APPROVAL ( #214, ( #271 ) ) ;
#216 = DIRECTION ( 'NONE',  ( 0.0000000000000000000, 1.000000000000000000, 0.0000000000000000000 ) ) ;
#217 = ADVANCED_FACE ( 'NONE', ( #78, #172 ), #27, .T. ) ;
#218 = DIRECTION ( 'NONE',  ( -3.491481338843133355E-15, 1.224646799147353207E-16, -1.000000000000000000 ) ) ;
#219 = DIRECTION ( 'NONE',  ( -3.491481338843133355E-15, 1.224646799147353207E-16, -1.000000000000000000 ) ) ;
#220 = CC_DESIGN_APPROVAL ( #6, ( #197 ) ) ;
#221 = FACE_OUTER_BOUND ( 'NONE', #298, .T. ) ;
#222 = MECHANICAL_CONTEXT ( 'NONE', #190, 'mechanical' ) ;
#223 =( LENGTH_UNIT ( ) NAMED_UNIT ( * ) SI_UNIT ( .MILLI., .METRE. ) );
#224 = EDGE_CURVE ( 'NONE', #10, #10, #152, .T. ) ;
#225 = VERTEX_POINT ( 'NONE', #85 ) ;
#226 = AXIS2_PLACEMENT_3D ( 'NONE', #50, #241, #104 ) ;
#227 = ORIENTED_EDGE ( 'NONE', *, *, #79, .F. ) ;
#228 = EDGE_CURVE ( 'NONE', #63, #63, #32, .T. ) ;
#229 = PLANE ( 'NONE',  #108 ) ;
#230 = PERSON_AND_ORGANIZATION_ROLE ( 'design_supplier' ) ;
#231 = CC_DESIGN_DATE_AND_TIME_ASSIGNMENT ( #302, #43, ( #271 ) ) ;
#232 = ORIENTED_EDGE ( 'NONE', *, *, #181, .F. ) ;
#233 = CIRCLE ( 'NONE', #158, 0.7250000000000001998 ) ;
#234 = EDGE_LOOP ( 'NONE', ( #97 ) ) ;
#235 = COORDINATED_UNIVERSAL_TIME_OFFSET ( 1, 0, .AHEAD. ) ;
#236 = DIRECTION ( 'NONE',  ( -3.491481338843133355E-15, 1.224646799147353207E-16, -1.000000000000000000 ) ) ;
#237 = APPROVAL_DATE_TIME ( #279, #6 ) ;
#238 = DIRECTION ( 'NONE',  ( 3.491481338843133355E-15, -1.224646799147353207E-16, 1.000000000000000000 ) ) ;
#239 = PERSON_AND_ORGANIZATION_ROLE ( 'creator' ) ;
#240 = PLANE ( 'NONE',  #161 ) ;
#241 = DIRECTION ( 'NONE',  ( -3.491481338843133355E-15, 1.224646799147353207E-16, -1.000000000000000000 ) ) ;
#242 = FACE_OUTER_BOUND ( 'NONE', #143, .T. ) ;
#243 = PERSON_AND_ORGANIZATION ( #116, #110 ) ;
#244 = DIRECTION ( 'NONE',  ( 0.0000000000000000000, 1.000000000000000000, 0.0000000000000000000 ) ) ;
#245 = CC_DESIGN_PERSON_AND_ORGANIZATION_ASSIGNMENT ( #20, #230, ( #197 ) ) ;
#246 = DIRECTION ( 'NONE',  ( -3.491481338843133355E-15, 1.224646799147353207E-16, -1.000000000000000000 ) ) ;
#247 = AXIS2_PLACEMENT_3D ( 'NONE', #248, #56, #178 ) ;
#248 = CARTESIAN_POINT ( 'NONE',  ( 0.0000000000000000000, 0.0000000000000000000, 0.0000000000000000000 ) ) ;
#249 = CARTESIAN_POINT ( 'NONE',  ( 2.444036937190193349E-14, 0.8284999999999990150, 7.000000000000000000 ) ) ;
#250 = FACE_OUTER_BOUND ( 'NONE', #64, .T. ) ;
#251 = EDGE_LOOP ( 'NONE', ( #40 ) ) ;
#252 = APPROVAL_ROLE ( '' ) ;
#253 = ORIENTED_EDGE ( 'NONE', *, *, #211, .T. ) ;
#254 = ADVANCED_FACE ( 'NONE', ( #130, #269 ), #180, .T. ) ;
#255 = AXIS2_PLACEMENT_3D ( 'NONE', #3, #238, #207 ) ;
#256 = EDGE_LOOP ( 'NONE', ( #66 ) ) ;
#257 = ORIENTED_EDGE ( 'NONE', *, *, #22, .T. ) ;
#258 =( GEOMETRIC_REPRESENTATION_CONTEXT ( 3 ) GLOBAL_UNCERTAINTY_ASSIGNED_CONTEXT ( ( #259 ) ) GLOBAL_UNIT_ASSIGNED_CONTEXT ( ( #223, #35, #7 ) ) REPRESENTATION_CONTEXT ( 'NONE', 'WORKASPACE' ) );
#259 = UNCERTAINTY_MEASURE_WITH_UNIT (LENGTH_MEASURE( 1.000000000000000082E-05 ), #223, 'distance_accuracy_value', 'NONE');
#260 = DATE_AND_TIME ( #167, #5 ) ;
#261 = PERSON_AND_ORGANIZATION ( #116, #110 ) ;
#262 = CARTESIAN_POINT ( 'NONE',  ( 1.745740669421566678E-13, 8.998558695971067645E-33, 50.00000000000000000 ) ) ;
#263 = AXIS2_PLACEMENT_3D ( 'NONE', #262, #100, #147 ) ;
#264 = DIRECTION ( 'NONE',  ( 0.0000000000000000000, 1.000000000000000000, 0.0000000000000000000 ) ) ;
#265 = PLANE ( 'NONE',  #17 ) ;
#266 = TOROIDAL_SURFACE ( 'NONE', #185, 2.725000000000000533, 2.000000000000000888 ) ;
#267 = FACE_OUTER_BOUND ( 'NONE', #206, .T. ) ;
#268 = DATE_TIME_ROLE ( 'creation_date' ) ;
#269 = FACE_BOUND ( 'NONE', #121, .T. ) ;
#270 = CARTESIAN_POINT ( 'NONE',  ( 2.506627765991136237E-14, 0.7249999999999986455, 7.179267258583378108 ) ) ;
#271 = SECURITY_CLASSIFICATION ( '', '', #98 ) ;
#272 = DIRECTION ( 'NONE',  ( 4.275831445896959482E-31, 1.000000000000000000, 1.224646799147353207E-16 ) ) ;
#273 = EDGE_LOOP ( 'NONE', ( #165 ) ) ;
#274 = PERSON_AND_ORGANIZATION_ROLE ( 'design_owner' ) ;
#275 = CIRCLE ( 'NONE', #134, 1.500000000000001554 ) ;
#276 = CIRCLE ( 'NONE', #300, 0.8284999999999999032 ) ;
#277 = PERSON_AND_ORGANIZATION ( #116, #110 ) ;
#278 = ORIENTED_EDGE ( 'NONE', *, *, #22, .F. ) ;
#279 = DATE_AND_TIME ( #301, #51 ) ;
#280 = ORIENTED_EDGE ( 'NONE', *, *, #74, .T. ) ;
#281 = CONICAL_SURFACE ( 'NONE', #255, 0.8284999999999990150, 0.5235987755982923764 ) ;
#282 = DIRECTION ( 'NONE',  ( -3.491481338843133355E-15, 1.224646799147353207E-16, -1.000000000000000000 ) ) ;
#283 = DIRECTION ( 'NONE',  ( 0.0000000000000000000, -1.000000000000000000, 0.0000000000000000000 ) ) ;
#284 = CARTESIAN_POINT ( 'NONE',  ( 5.707628016518647231E-14, -2.001966415627278450E-15, 16.34729635533384240 ) ) ;
#285 = ADVANCED_FACE ( 'NONE', ( #221, #250 ), #38, .T. ) ;
#286 = DIRECTION ( 'NONE',  ( 4.275831445896958607E-31, 1.000000000000000000, 1.224646799147352961E-16 ) ) ;
#287 = CLOSED_SHELL ( 'NONE', ( #112, #208, #163, #126, #54, #217, #254, #93 ) ) ;
#288 = APPROVAL_PERSON_ORGANIZATION ( #115, #174, #252 ) ;
#289 = DIRECTION ( 'NONE',  ( 0.0000000000000000000, 1.000000000000000000, 0.0000000000000000000 ) ) ;
#290 = VERTEX_POINT ( 'NONE', #119 ) ;
#291 = DIRECTION ( 'NONE',  ( 0.0000000000000000000, 1.000000000000000000, 0.0000000000000000000 ) ) ;
#292 = CC_DESIGN_PERSON_AND_ORGANIZATION_ASSIGNMENT ( #277, #68, ( #271 ) ) ;
#293 = APPROVAL_STATUS ( 'not_yet_approved' ) ;
#294 = CALENDAR_DATE ( 2021, 30, 11 ) ;
#295 = LOCAL_TIME ( 9, 32, 34.00000000000000000, #153 ) ;
#296 = ORIENTED_EDGE ( 'NONE', *, *, #168, .F. ) ;
#297 = PRODUCT_RELATED_PRODUCT_CATEGORY ( 'detail', '', ( #96 ) ) ;
#298 = EDGE_LOOP ( 'NONE', ( #227 ) ) ;
#299 = CC_DESIGN_DATE_AND_TIME_ASSIGNMENT ( #175, #268, ( #29 ) ) ;
#300 = AXIS2_PLACEMENT_3D ( 'NONE', #209, #77, #148 ) ;
#301 = CALENDAR_DATE ( 2021, 30, 11 ) ;
#302 = DATE_AND_TIME ( #144, #142 ) ;
#303 = PLANE ( 'NONE',  #263 ) ;
ENDSEC;
END-ISO-10303-21;
