ISO-10303-21;
HEADER;
FILE_DESCRIPTION (( 'STEP AP203' ),
    '1' );
FILE_NAME ('200123.step',
    '2021-11-30T09:36:55',
    ( '' ),
    ( '' ),
    'SwSTEP 2.0',
    'SolidWorks 2019',
    '' );
FILE_SCHEMA (( 'CONFIG_CONTROL_DESIGN' ));
ENDSEC;

DATA;
#1 = CARTESIAN_POINT ( 'NONE',  ( 2.129803616694311221E-13, -7.470345474798856659E-15, 61.00000000000000000 ) ) ;
#2 = APPROVAL_DATE_TIME ( #170, #186 ) ;
#3 = EDGE_CURVE ( 'NONE', #248, #248, #287, .T. ) ;
#4 = DIRECTION ( 'NONE',  ( 4.275831445896959482E-31, 1.000000000000000000, 1.224646799147353454E-16 ) ) ;
#5 = DESIGN_CONTEXT ( 'detailed design', #27, 'design' ) ;
#6 = CC_DESIGN_SECURITY_CLASSIFICATION ( #25, ( #288 ) ) ;
#7 = ORIENTED_EDGE ( 'NONE', *, *, #84, .T. ) ;
#8 = COORDINATED_UNIVERSAL_TIME_OFFSET ( 1, 0, .AHEAD. ) ;
#9 = FACE_OUTER_BOUND ( 'NONE', #145, .T. ) ;
#10 = ADVANCED_FACE ( 'NONE', ( #71, #79 ), #115, .T. ) ;
#11 = EDGE_LOOP ( 'NONE', ( #205 ) ) ;
#12 = CC_DESIGN_APPROVAL ( #135, ( #288 ) ) ;
#13 = FACE_OUTER_BOUND ( 'NONE', #180, .T. ) ;
#14 = CARTESIAN_POINT ( 'NONE',  ( 9.482837466738113547E-14, -3.326131639679139478E-15, 27.15992596391809499 ) ) ;
#15 = CARTESIAN_POINT ( 'NONE',  ( 2.129803616694311221E-13, -7.470345474798856659E-15, 61.00000000000000000 ) ) ;
#16 = FACE_OUTER_BOUND ( 'NONE', #214, .T. ) ;
#17 = DIRECTION ( 'NONE',  ( -3.491481338843133355E-15, 1.224646799147353454E-16, -1.000000000000000000 ) ) ;
#18 = CARTESIAN_POINT ( 'NONE',  ( 0.0000000000000000000, 0.0000000000000000000, 0.0000000000000000000 ) ) ;
#19 = AXIS2_PLACEMENT_3D ( 'NONE', #244, #150, #246 ) ;
#20 = APPLICATION_CONTEXT ( 'configuration controlled 3d designs of mechanical parts and assemblies' ) ;
#21 = CARTESIAN_POINT ( 'NONE',  ( 3.491481338843133355E-14, 1.353499999999998593, 10.00000000000000000 ) ) ;
#22 = CARTESIAN_POINT ( 'NONE',  ( 2.119329172677781757E-13, 1.499999999999994005, 60.69999999999999574 ) ) ;
#23 = APPROVAL ( #66, 'UNSPECIFIED' ) ;
#24 = CARTESIAN_POINT ( 'NONE',  ( 2.129803616694311221E-13, 1.199999999999993960, 61.00000000000000000 ) ) ;
#25 = SECURITY_CLASSIFICATION ( '', '', #117 ) ;
#26 = EDGE_LOOP ( 'NONE', ( #187 ) ) ;
#27 = APPLICATION_CONTEXT ( 'configuration controlled 3d designs of mechanical parts and assemblies' ) ;
#28 = DATE_TIME_ROLE ( 'creation_date' ) ;
#29 = ORIENTED_EDGE ( 'NONE', *, *, #3, .T. ) ;
#30 = PERSON_AND_ORGANIZATION ( #209, #254 ) ;
#31 = AXIS2_PLACEMENT_3D ( 'NONE', #223, #17, #193 ) ;
#32 = COORDINATED_UNIVERSAL_TIME_OFFSET ( 1, 0, .AHEAD. ) ;
#33 = CARTESIAN_POINT ( 'NONE',  ( 8.849961221477468513E-14, -3.104148534859897150E-15, 25.34729635533384240 ) ) ;
#34 = ORIENTED_EDGE ( 'NONE', *, *, #270, .T. ) ;
#35 = CARTESIAN_POINT ( 'NONE',  ( -4.477823202856670981E-31, 1.570608953717953115E-32, -1.282499537671981754E-16 ) ) ;
#36 = CARTESIAN_POINT ( 'NONE',  ( 3.491481338843133355E-14, 1.014962432916410458E-32, 10.00000000000000000 ) ) ;
#37 = ADVANCED_BREP_SHAPE_REPRESENTATION ( '200123', ( #63, #262, #231 ), #171 ) ;
#38 = DIRECTION ( 'NONE',  ( 0.0000000000000000000, 1.000000000000000000, 0.0000000000000000000 ) ) ;
#39 = CARTESIAN_POINT ( 'NONE',  ( 0.0000000000000000000, 0.0000000000000000000, 0.0000000000000000000 ) ) ;
#40 = CC_DESIGN_APPROVAL ( #23, ( #301 ) ) ;
#41 = EDGE_CURVE ( 'NONE', #44, #44, #273, .T. ) ;
#42 = VERTEX_POINT ( 'NONE', #93 ) ;
#43 = DIRECTION ( 'NONE',  ( 3.491481338843133355E-15, -1.224646799147353454E-16, 1.000000000000000000 ) ) ;
#44 = VERTEX_POINT ( 'NONE', #113 ) ;
#45 = MECHANICAL_CONTEXT ( 'NONE', #20, 'mechanical' ) ;
#46 = APPROVAL_STATUS ( 'not_yet_approved' ) ;
#47 = FACE_OUTER_BOUND ( 'NONE', #142, .T. ) ;
#48 = ADVANCED_FACE ( 'NONE', ( #213, #9 ), #100, .T. ) ;
#49 = PERSON_AND_ORGANIZATION_ROLE ( 'creator' ) ;
#50 = CARTESIAN_POINT ( 'NONE',  ( 2.129803616694311221E-13, 8.998558695971049855E-33, 61.00000000000000000 ) ) ;
#51 = PERSON_AND_ORGANIZATION ( #209, #254 ) ;
#52 = ORIENTED_EDGE ( 'NONE', *, *, #70, .T. ) ;
#53 = DIRECTION ( 'NONE',  ( -3.491481338843133355E-15, 1.224646799147353454E-16, -1.000000000000000000 ) ) ;
#54 = ORIENTED_EDGE ( 'NONE', *, *, #184, .F. ) ;
#55 = FACE_BOUND ( 'NONE', #98, .T. ) ;
#56 = PLANE ( 'NONE',  #149 ) ;
#57 = AXIS2_PLACEMENT_3D ( 'NONE', #198, #292, #38 ) ;
#58 = CC_DESIGN_PERSON_AND_ORGANIZATION_ASSIGNMENT ( #189, #236, ( #288 ) ) ;
#59 = CARTESIAN_POINT ( 'NONE',  ( -8.955646405713341962E-31, 3.141217907435906230E-32, -2.564999075343963507E-16 ) ) ;
#60 = DIRECTION ( 'NONE',  ( -4.275831445896959482E-31, -1.000000000000000000, -1.224646799147353454E-16 ) ) ;
#61 = DIRECTION ( 'NONE',  ( -3.491481338843133355E-15, 1.224646799147353454E-16, -1.000000000000000000 ) ) ;
#62 = CIRCLE ( 'NONE', #19, 1.149999999999999911 ) ;
#63 = MANIFOLD_SOLID_BREP ( 'Corps-Déplacer/Copier1[1]', #106 ) ;
#64 = LOCAL_TIME ( 10, 36, 55.00000000000000000, #69 ) ;
#65 = COORDINATED_UNIVERSAL_TIME_OFFSET ( 1, 0, .AHEAD. ) ;
#66 = APPROVAL_STATUS ( 'not_yet_approved' ) ;
#67 = CARTESIAN_POINT ( 'NONE',  ( 8.728703347107833388E-16, 1.353499999999998593, 0.2500000000000000000 ) ) ;
#68 = DIRECTION ( 'NONE',  ( 1.000000000000000000, 0.0000000000000000000, 0.0000000000000000000 ) ) ;
#69 = COORDINATED_UNIVERSAL_TIME_OFFSET ( 1, 0, .AHEAD. ) ;
#70 = EDGE_CURVE ( 'NONE', #201, #201, #242, .T. ) ;
#71 = FACE_OUTER_BOUND ( 'NONE', #144, .T. ) ;
#72 = PLANE ( 'NONE',  #191 ) ;
#73 = APPROVAL_STATUS ( 'not_yet_approved' ) ;
#74 = ORIENTED_EDGE ( 'NONE', *, *, #107, .T. ) ;
#75 = ADVANCED_FACE ( 'NONE', ( #47 ), #72, .F. ) ;
#76 = DATE_AND_TIME ( #97, #155 ) ;
#77 = ORIENTED_EDGE ( 'NONE', *, *, #3, .F. ) ;
#78 = PERSON_AND_ORGANIZATION_ROLE ( 'classification_officer' ) ;
#79 = FACE_BOUND ( 'NONE', #26, .T. ) ;
#80 = AXIS2_PLACEMENT_3D ( 'NONE', #174, #290, #133 ) ;
#81 = LOCAL_TIME ( 10, 36, 55.00000000000000000, #143 ) ;
#82 = FACE_OUTER_BOUND ( 'NONE', #192, .T. ) ;
#83 = CARTESIAN_POINT ( 'NONE',  ( 3.491481338843133355E-14, 1.014962432916410458E-32, 10.00000000000000000 ) ) ;
#84 = EDGE_CURVE ( 'NONE', #298, #298, #297, .T. ) ;
#85 = DIRECTION ( 'NONE',  ( -3.491481338843133355E-15, 1.224646799147353454E-16, -1.000000000000000000 ) ) ;
#86 = AXIS2_PLACEMENT_3D ( 'NONE', #33, #172, #125 ) ;
#87 = DIRECTION ( 'NONE',  ( 3.491481338843133355E-15, -1.224646799147353454E-16, 1.000000000000000000 ) ) ;
#88 = DIRECTION ( 'NONE',  ( 0.0000000000000000000, 1.000000000000000000, 0.0000000000000000000 ) ) ;
#89 = AXIS2_PLACEMENT_3D ( 'NONE', #257, #190, #265 ) ;
#90 = LOCAL_TIME ( 10, 36, 55.00000000000000000, #32 ) ;
#91 = APPLICATION_PROTOCOL_DEFINITION ( 'international standard', 'config_control_design', 1994, #20 ) ;
#92 = EDGE_CURVE ( 'NONE', #225, #225, #278, .T. ) ;
#93 = CARTESIAN_POINT ( 'NONE',  ( 9.482837466738113547E-14, 1.499999999999992673, 27.15992596391809499 ) ) ;
#94 = AXIS2_PLACEMENT_3D ( 'NONE', #295, #243, #176 ) ;
#95 = ADVANCED_FACE ( 'NONE', ( #55, #13 ), #215, .T. ) ;
#96 = DIRECTION ( 'NONE',  ( 4.275831445896960358E-31, 1.000000000000000000, 1.224646799147353454E-16 ) ) ;
#97 = CALENDAR_DATE ( 2021, 30, 11 ) ;
#98 = EDGE_LOOP ( 'NONE', ( #102 ) ) ;
#99 = PERSON_AND_ORGANIZATION ( #209, #254 ) ;
#100 = CYLINDRICAL_SURFACE ( 'NONE', #253, 1.499999999999998668 ) ;
#101 = AXIS2_PLACEMENT_3D ( 'NONE', #221, #196, #154 ) ;
#102 = ORIENTED_EDGE ( 'NONE', *, *, #84, .F. ) ;
#103 = FACE_OUTER_BOUND ( 'NONE', #250, .T. ) ;
#104 = FACE_OUTER_BOUND ( 'NONE', #286, .T. ) ;
#105 = FACE_OUTER_BOUND ( 'NONE', #232, .T. ) ;
#106 = CLOSED_SHELL ( 'NONE', ( #161, #251, #157, #279, #293, #48, #10, #75 ) ) ;
#107 = EDGE_CURVE ( 'NONE', #277, #277, #226, .T. ) ;
#108 = DIRECTION ( 'NONE',  ( -3.491481338843133355E-15, 1.224646799147353454E-16, -1.000000000000000000 ) ) ;
#109 =( NAMED_UNIT ( * ) PLANE_ANGLE_UNIT ( ) SI_UNIT ( $, .RADIAN. ) );
#110 = ORIENTED_EDGE ( 'NONE', *, *, #92, .F. ) ;
#111 = AXIS2_PLACEMENT_3D ( 'NONE', #148, #129, #132 ) ;
#112 = CC_DESIGN_PERSON_AND_ORGANIZATION_ASSIGNMENT ( #260, #49, ( #288 ) ) ;
#113 = CARTESIAN_POINT ( 'NONE',  ( 8.849961221477468513E-14, 1.180384493975578319, 25.34729635533384240 ) ) ;
#114 = VERTEX_POINT ( 'NONE', #183 ) ;
#115 = CONICAL_SURFACE ( 'NONE', #283, 1.200000000000001510, 0.7853981633974453924 ) ;
#116 = CLOSED_SHELL ( 'NONE', ( #127, #95, #222, #289 ) ) ;
#117 = SECURITY_CLASSIFICATION_LEVEL ( 'unclassified' ) ;
#118 = CC_DESIGN_PERSON_AND_ORGANIZATION_ASSIGNMENT ( #51, #121, ( #301 ) ) ;
#119 = APPROVAL_DATE_TIME ( #76, #135 ) ;
#120 = ORIENTED_EDGE ( 'NONE', *, *, #107, .F. ) ;
#121 = PERSON_AND_ORGANIZATION_ROLE ( 'creator' ) ;
#122 = EDGE_LOOP ( 'NONE', ( #202 ) ) ;
#123 = CALENDAR_DATE ( 2021, 30, 11 ) ;
#124 = EDGE_LOOP ( 'NONE', ( #284 ) ) ;
#125 = DIRECTION ( 'NONE',  ( 0.0000000000000000000, 1.000000000000000000, 0.0000000000000000000 ) ) ;
#126 = ORIENTED_EDGE ( 'NONE', *, *, #70, .F. ) ;
#127 = ADVANCED_FACE ( 'NONE', ( #82 ), #269, .F. ) ;
#128 = AXIS2_PLACEMENT_3D ( 'NONE', #241, #85, #271 ) ;
#129 = DIRECTION ( 'NONE',  ( -3.491481338843133355E-15, 1.224646799147353454E-16, -1.000000000000000000 ) ) ;
#130 = CC_DESIGN_APPROVAL ( #186, ( #25 ) ) ;
#131 = CYLINDRICAL_SURFACE ( 'NONE', #182, 1.353499999999999259 ) ;
#132 = DIRECTION ( 'NONE',  ( 4.275831445896959482E-31, 1.000000000000000000, 1.224646799147353454E-16 ) ) ;
#133 = DIRECTION ( 'NONE',  ( -4.268777120917409136E-31, -1.000000000000000000, -1.201553940693208908E-16 ) ) ;
#134 = AXIS2_PLACEMENT_3D ( 'NONE', #227, #163, #229 ) ;
#135 = APPROVAL ( #73, 'UNSPECIFIED' ) ;
#136 = FACE_OUTER_BOUND ( 'NONE', #188, .T. ) ;
#137 = PERSON_AND_ORGANIZATION_ROLE ( 'design_owner' ) ;
#138 = EDGE_CURVE ( 'NONE', #114, #114, #160, .T. ) ;
#139 = AXIS2_PLACEMENT_3D ( 'NONE', #263, #53, #259 ) ;
#140 = AXIS2_PLACEMENT_3D ( 'NONE', #15, #152, #88 ) ;
#141 = DATE_AND_TIME ( #234, #81 ) ;
#142 = EDGE_LOOP ( 'NONE', ( #110 ) ) ;
#143 = COORDINATED_UNIVERSAL_TIME_OFFSET ( 1, 0, .AHEAD. ) ;
#144 = EDGE_LOOP ( 'NONE', ( #77 ) ) ;
#145 = EDGE_LOOP ( 'NONE', ( #29 ) ) ;
#146 = CALENDAR_DATE ( 2021, 30, 11 ) ;
#147 = ORIENTED_EDGE ( 'NONE', *, *, #212, .T. ) ;
#148 = CARTESIAN_POINT ( 'NONE',  ( 0.0000000000000000000, 0.0000000000000000000, 0.0000000000000000000 ) ) ;
#149 = AXIS2_PLACEMENT_3D ( 'NONE', #36, #87, #266 ) ;
#150 = DIRECTION ( 'NONE',  ( -3.491481338843133355E-15, 1.224646799147353454E-16, -1.000000000000000000 ) ) ;
#151 = DIRECTION ( 'NONE',  ( 3.491481338843133355E-15, -1.224646799147353454E-16, 1.000000000000000000 ) ) ;
#152 = DIRECTION ( 'NONE',  ( -3.491481338843133355E-15, 1.224646799147353454E-16, -1.000000000000000000 ) ) ;
#153 = PRODUCT_RELATED_PRODUCT_CATEGORY ( 'detail', '', ( #255 ) ) ;
#154 = DIRECTION ( 'NONE',  ( 0.0000000000000000000, 1.000000000000000000, 0.0000000000000000000 ) ) ;
#155 = LOCAL_TIME ( 10, 36, 55.00000000000000000, #8 ) ;
#156 = DIRECTION ( 'NONE',  ( -4.275831445896959482E-31, -1.000000000000000000, -1.224646799147353454E-16 ) ) ;
#157 = ADVANCED_FACE ( 'NONE', ( #105, #267 ), #245, .T. ) ;
#158 = CALENDAR_DATE ( 2021, 30, 11 ) ;
#159 = DIRECTION ( 'NONE',  ( 0.0000000000000000000, 0.0000000000000000000, 1.000000000000000000 ) ) ;
#160 = CIRCLE ( 'NONE', #101, 1.353499999999999925 ) ;
#161 = ADVANCED_FACE ( 'NONE', ( #173 ), #56, .F. ) ;
#162 = VERTEX_POINT ( 'NONE', #203 ) ;
#163 = DIRECTION ( 'NONE',  ( 3.491481338843133355E-15, -1.224646799147353454E-16, 1.000000000000000000 ) ) ;
#164 = DIRECTION ( 'NONE',  ( -3.491481338843133355E-15, 1.224646799147353454E-16, -1.000000000000000000 ) ) ;
#165 = AXIS2_PLACEMENT_3D ( 'NONE', #35, #151, #60 ) ;
#166 = ORIENTED_EDGE ( 'NONE', *, *, #270, .F. ) ;
#167 = DATE_AND_TIME ( #146, #64 ) ;
#168 = EDGE_LOOP ( 'NONE', ( #34 ) ) ;
#169 = EDGE_LOOP ( 'NONE', ( #185 ) ) ;
#170 = DATE_AND_TIME ( #123, #90 ) ;
#171 =( GEOMETRIC_REPRESENTATION_CONTEXT ( 3 ) GLOBAL_UNCERTAINTY_ASSIGNED_CONTEXT ( ( #206 ) ) GLOBAL_UNIT_ASSIGNED_CONTEXT ( ( #199, #109, #280 ) ) REPRESENTATION_CONTEXT ( 'NONE', 'WORKASPACE' ) );
#172 = DIRECTION ( 'NONE',  ( -3.491481338843133355E-15, 1.224646799147353454E-16, -1.000000000000000000 ) ) ;
#173 = FACE_OUTER_BOUND ( 'NONE', #11, .T. ) ;
#174 = CARTESIAN_POINT ( 'NONE',  ( 8.728703347107827472E-16, -3.061616997868381785E-17, 0.2499999999999998335 ) ) ;
#175 = AXIS2_PLACEMENT_3D ( 'NONE', #14, #296, #177 ) ;
#176 = DIRECTION ( 'NONE',  ( 0.0000000000000000000, 1.000000000000000000, 0.0000000000000000000 ) ) ;
#177 = DIRECTION ( 'NONE',  ( 0.0000000000000000000, 1.000000000000000000, 0.0000000000000000000 ) ) ;
#178 = PERSON_AND_ORGANIZATION ( #209, #254 ) ;
#179 = APPROVAL_ROLE ( '' ) ;
#180 = EDGE_LOOP ( 'NONE', ( #52 ) ) ;
#181 = FACE_BOUND ( 'NONE', #124, .T. ) ;
#182 = AXIS2_PLACEMENT_3D ( 'NONE', #39, #108, #218 ) ;
#183 = CARTESIAN_POINT ( 'NONE',  ( 3.491481338843133355E-14, 1.353499999999998593, 10.00000000000000000 ) ) ;
#184 = EDGE_CURVE ( 'NONE', #300, #300, #62, .T. ) ;
#185 = ORIENTED_EDGE ( 'NONE', *, *, #138, .F. ) ;
#186 = APPROVAL ( #46, 'UNSPECIFIED' ) ;
#187 = ORIENTED_EDGE ( 'NONE', *, *, #92, .T. ) ;
#188 = EDGE_LOOP ( 'NONE', ( #120 ) ) ;
#189 = PERSON_AND_ORGANIZATION ( #209, #254 ) ;
#190 = DIRECTION ( 'NONE',  ( -3.491481338843133355E-15, 1.224646799147353454E-16, -1.000000000000000000 ) ) ;
#191 = AXIS2_PLACEMENT_3D ( 'NONE', #50, #208, #4 ) ;
#192 = EDGE_LOOP ( 'NONE', ( #7 ) ) ;
#193 = DIRECTION ( 'NONE',  ( 4.275831445896959482E-31, 1.000000000000000000, 1.224646799147353454E-16 ) ) ;
#194 = FACE_BOUND ( 'NONE', #261, .T. ) ;
#195 = AXIS2_PLACEMENT_3D ( 'NONE', #83, #43, #156 ) ;
#196 = DIRECTION ( 'NONE',  ( -3.491481338843133355E-15, 1.224646799147353454E-16, -1.000000000000000000 ) ) ;
#197 = LOCAL_TIME ( 10, 36, 55.00000000000000000, #65 ) ;
#198 = CARTESIAN_POINT ( 'NONE',  ( 3.614546398369628854E-14, -1.267812211363458297E-15, 10.35247233934027378 ) ) ;
#199 =( LENGTH_UNIT ( ) NAMED_UNIT ( * ) SI_UNIT ( .MILLI., .METRE. ) );
#200 = PERSON_AND_ORGANIZATION ( #209, #254 ) ;
#201 = VERTEX_POINT ( 'NONE', #67 ) ;
#202 = ORIENTED_EDGE ( 'NONE', *, *, #184, .T. ) ;
#203 = CARTESIAN_POINT ( 'NONE',  ( 3.614546398369628854E-14, 1.149999999999997025, 10.35247233934027378 ) ) ;
#204 = APPROVAL_ROLE ( '' ) ;
#205 = ORIENTED_EDGE ( 'NONE', *, *, #138, .T. ) ;
#206 = UNCERTAINTY_MEASURE_WITH_UNIT (LENGTH_MEASURE( 1.000000000000000082E-05 ), #199, 'distance_accuracy_value', 'NONE');
#207 = PERSON_AND_ORGANIZATION ( #209, #254 ) ;
#208 = DIRECTION ( 'NONE',  ( -3.491481338843133355E-15, 1.224646799147353454E-16, -1.000000000000000000 ) ) ;
#209 = PERSON ( 'UNSPECIFIED', 'UNSPECIFIED', 'UNSPECIFIED', ('UNSPECIFIED'), ('UNSPECIFIED'), ('UNSPECIFIED') ) ;
#210 = DATE_TIME_ROLE ( 'classification_date' ) ;
#211 = ORIENTED_EDGE ( 'NONE', *, *, #41, .T. ) ;
#212 = EDGE_CURVE ( 'NONE', #162, #162, #220, .T. ) ;
#213 = FACE_OUTER_BOUND ( 'NONE', #240, .T. ) ;
#214 = EDGE_LOOP ( 'NONE', ( #126 ) ) ;
#215 = CONICAL_SURFACE ( 'NONE', #80, 1.353499999999998593, 0.5235987755982924874 ) ;
#216 = APPROVAL_PERSON_ORGANIZATION ( #30, #186, #204 ) ;
#217 = FACE_OUTER_BOUND ( 'NONE', #169, .T. ) ;
#218 = DIRECTION ( 'NONE',  ( 4.275831445896959482E-31, 1.000000000000000000, 1.224646799147353207E-16 ) ) ;
#219 = DIRECTION ( 'NONE',  ( 4.275831445896958607E-31, 1.000000000000000000, 1.224646799147353207E-16 ) ) ;
#220 = CIRCLE ( 'NONE', #94, 1.149999999999998135 ) ;
#221 = CARTESIAN_POINT ( 'NONE',  ( 3.491481338843133355E-14, -1.224646799147353454E-15, 10.00000000000000000 ) ) ;
#222 = ADVANCED_FACE ( 'NONE', ( #16, #104 ), #131, .T. ) ;
#223 = CARTESIAN_POINT ( 'NONE',  ( 8.728703347107833388E-14, -3.035766082959412415E-15, 25.00000000000000000 ) ) ;
#224 = APPLICATION_PROTOCOL_DEFINITION ( 'international standard', 'config_control_design', 1994, #27 ) ;
#225 = VERTEX_POINT ( 'NONE', #24 ) ;
#226 = CIRCLE ( 'NONE', #128, 1.353499999999999925 ) ;
#227 = CARTESIAN_POINT ( 'NONE',  ( 9.482837466738113547E-14, -3.326131639679139478E-15, 27.15992596391809499 ) ) ;
#228 = CC_DESIGN_DATE_AND_TIME_ASSIGNMENT ( #167, #210, ( #25 ) ) ;
#229 = DIRECTION ( 'NONE',  ( 0.0000000000000000000, -1.000000000000000000, 0.0000000000000000000 ) ) ;
#230 = CONICAL_SURFACE ( 'NONE', #57, 1.149999999999998135, 0.5235987755982930425 ) ;
#231 = AXIS2_PLACEMENT_3D ( 'NONE', #18, #159, #68 ) ;
#232 = EDGE_LOOP ( 'NONE', ( #275 ) ) ;
#233 = CC_DESIGN_DATE_AND_TIME_ASSIGNMENT ( #141, #28, ( #301 ) ) ;
#234 = CALENDAR_DATE ( 2021, 30, 11 ) ;
#235 = DIRECTION ( 'NONE',  ( 0.0000000000000000000, 1.000000000000000000, 0.0000000000000000000 ) ) ;
#236 = PERSON_AND_ORGANIZATION_ROLE ( 'design_supplier' ) ;
#237 = EDGE_LOOP ( 'NONE', ( #211 ) ) ;
#238 = DIRECTION ( 'NONE',  ( -3.491481338843133355E-15, 1.224646799147353454E-16, -1.000000000000000000 ) ) ;
#239 = SHAPE_DEFINITION_REPRESENTATION ( #281, #37 ) ;
#240 = EDGE_LOOP ( 'NONE', ( #166 ) ) ;
#241 = CARTESIAN_POINT ( 'NONE',  ( 3.491481338843133355E-14, -1.224646799147353454E-15, 10.00000000000000000 ) ) ;
#242 = CIRCLE ( 'NONE', #89, 1.353499999999998593 ) ;
#243 = DIRECTION ( 'NONE',  ( -3.491481338843133355E-15, 1.224646799147353454E-16, -1.000000000000000000 ) ) ;
#244 = CARTESIAN_POINT ( 'NONE',  ( 8.728703347107833388E-14, -3.061616997868383831E-15, 25.00000000000000000 ) ) ;
#245 = CYLINDRICAL_SURFACE ( 'NONE', #111, 1.149999999999999023 ) ;
#246 = DIRECTION ( 'NONE',  ( 0.0000000000000000000, 1.000000000000000000, 0.0000000000000000000 ) ) ;
#247 = APPROVAL_PERSON_ORGANIZATION ( #200, #23, #179 ) ;
#248 = VERTEX_POINT ( 'NONE', #22 ) ;
#249 = FACE_OUTER_BOUND ( 'NONE', #168, .T. ) ;
#250 = EDGE_LOOP ( 'NONE', ( #54 ) ) ;
#251 = ADVANCED_FACE ( 'NONE', ( #217, #194 ), #230, .T. ) ;
#252 = DATE_AND_TIME ( #158, #197 ) ;
#253 = AXIS2_PLACEMENT_3D ( 'NONE', #282, #164, #96 ) ;
#254 = ORGANIZATION ( 'UNSPECIFIED', 'UNSPECIFIED', '' ) ;
#255 = PRODUCT ( '200123', '200123', '', ( #45 ) ) ;
#256 = CARTESIAN_POINT ( 'NONE',  ( 8.728703347107833388E-14, 1.149999999999997025, 25.00000000000000000 ) ) ;
#257 = CARTESIAN_POINT ( 'NONE',  ( 8.728703347107827472E-16, -3.061616997868381785E-17, 0.2499999999999998335 ) ) ;
#258 = APPROVAL_PERSON_ORGANIZATION ( #207, #135, #303 ) ;
#259 = DIRECTION ( 'NONE',  ( 0.0000000000000000000, 1.000000000000000000, 0.0000000000000000000 ) ) ;
#260 = PERSON_AND_ORGANIZATION ( #209, #254 ) ;
#261 = EDGE_LOOP ( 'NONE', ( #147 ) ) ;
#262 = MANIFOLD_SOLID_BREP ( 'Corps-Déplacer/Copier1[2]', #116 ) ;
#263 = CARTESIAN_POINT ( 'NONE',  ( 2.119329172677781757E-13, -7.433606070824434221E-15, 60.69999999999999574 ) ) ;
#264 = CONICAL_SURFACE ( 'NONE', #134, 1.499999999999996003, 0.1745329251994258424 ) ;
#265 = DIRECTION ( 'NONE',  ( 4.268777120917409136E-31, 1.000000000000000000, 1.201553940693208908E-16 ) ) ;
#266 = DIRECTION ( 'NONE',  ( -4.275831445896959482E-31, -1.000000000000000000, -1.224646799147353454E-16 ) ) ;
#267 = FACE_OUTER_BOUND ( 'NONE', #122, .T. ) ;
#268 = CIRCLE ( 'NONE', #175, 1.499999999999996003 ) ;
#269 = PLANE ( 'NONE',  #165 ) ;
#270 = EDGE_CURVE ( 'NONE', #42, #42, #268, .T. ) ;
#271 = DIRECTION ( 'NONE',  ( 0.0000000000000000000, 1.000000000000000000, 0.0000000000000000000 ) ) ;
#272 = FACE_OUTER_BOUND ( 'NONE', #237, .T. ) ;
#273 = CIRCLE ( 'NONE', #86, 1.180384493975581428 ) ;
#274 = CARTESIAN_POINT ( 'NONE',  ( -3.785471652766323589E-31, 1.209162432702594270, -1.084202172485504434E-16 ) ) ;
#275 = ORIENTED_EDGE ( 'NONE', *, *, #212, .F. ) ;
#276 = CC_DESIGN_PERSON_AND_ORGANIZATION_ASSIGNMENT ( #99, #78, ( #25 ) ) ;
#277 = VERTEX_POINT ( 'NONE', #21 ) ;
#278 = CIRCLE ( 'NONE', #140, 1.200000000000001510 ) ;
#279 = ADVANCED_FACE ( 'NONE', ( #103, #272 ), #294, .F. ) ;
#280 =( NAMED_UNIT ( * ) SI_UNIT ( $, .STERADIAN. ) SOLID_ANGLE_UNIT ( ) );
#281 = PRODUCT_DEFINITION_SHAPE ( 'NONE', 'NONE',  #301 ) ;
#282 = CARTESIAN_POINT ( 'NONE',  ( 0.0000000000000000000, 0.0000000000000000000, 0.0000000000000000000 ) ) ;
#283 = AXIS2_PLACEMENT_3D ( 'NONE', #1, #238, #235 ) ;
#284 = ORIENTED_EDGE ( 'NONE', *, *, #41, .F. ) ;
#285 = APPROVAL_DATE_TIME ( #252, #23 ) ;
#286 = EDGE_LOOP ( 'NONE', ( #74 ) ) ;
#287 = CIRCLE ( 'NONE', #139, 1.500000000000001332 ) ;
#288 = PRODUCT_DEFINITION_FORMATION_WITH_SPECIFIED_SOURCE ( 'ANY', '', #255, .NOT_KNOWN. ) ;
#289 = ADVANCED_FACE ( 'NONE', ( #136 ), #291, .T. ) ;
#290 = DIRECTION ( 'NONE',  ( 3.491481338843133355E-15, -1.224646799147353454E-16, 1.000000000000000000 ) ) ;
#291 = PLANE ( 'NONE',  #195 ) ;
#292 = DIRECTION ( 'NONE',  ( -3.491481338843133355E-15, 1.224646799147353454E-16, -1.000000000000000000 ) ) ;
#293 = ADVANCED_FACE ( 'NONE', ( #181, #249 ), #264, .T. ) ;
#294 = TOROIDAL_SURFACE ( 'NONE', #31, 3.149999999999999911, 2.000000000000000000 ) ;
#295 = CARTESIAN_POINT ( 'NONE',  ( 3.614546398369628854E-14, -1.267812211363458297E-15, 10.35247233934027378 ) ) ;
#296 = DIRECTION ( 'NONE',  ( -3.491481338843133355E-15, 1.224646799147353454E-16, -1.000000000000000000 ) ) ;
#297 = CIRCLE ( 'NONE', #302, 1.209162432702594270 ) ;
#298 = VERTEX_POINT ( 'NONE', #274 ) ;
#299 = CC_DESIGN_PERSON_AND_ORGANIZATION_ASSIGNMENT ( #178, #137, ( #255 ) ) ;
#300 = VERTEX_POINT ( 'NONE', #256 ) ;
#301 = PRODUCT_DEFINITION ( 'UNKNOWN', '', #288, #5 ) ;
#302 = AXIS2_PLACEMENT_3D ( 'NONE', #59, #61, #219 ) ;
#303 = APPROVAL_ROLE ( '' ) ;
ENDSEC;
END-ISO-10303-21;
