ISO-10303-21;
HEADER;
FILE_DESCRIPTION (( 'STEP AP203' ),
    '1' );
FILE_NAME ('200122.step',
    '2021-11-30T09:36:54',
    ( '' ),
    ( '' ),
    'SwSTEP 2.0',
    'SolidWorks 2019',
    '' );
FILE_SCHEMA (( 'CONFIG_CONTROL_DESIGN' ));
ENDSEC;

DATA;
#1 = CARTESIAN_POINT ( 'NONE',  ( 2.129803616694311221E-13, -7.470345474798856659E-15, 61.00000000000000000 ) ) ;
#2 = DIRECTION ( 'NONE',  ( 1.000000000000000000, 0.0000000000000000000, 0.0000000000000000000 ) ) ;
#3 = ADVANCED_FACE ( 'NONE', ( #268, #37 ), #256, .F. ) ;
#4 = FACE_OUTER_BOUND ( 'NONE', #81, .T. ) ;
#5 = CARTESIAN_POINT ( 'NONE',  ( 8.728703347107833388E-14, 1.174999999999997158, 25.00000000000000000 ) ) ;
#6 = ADVANCED_FACE ( 'NONE', ( #104 ), #107, .T. ) ;
#7 = CARTESIAN_POINT ( 'NONE',  ( 0.0000000000000000000, 1.234162432702594181, 0.0000000000000000000 ) ) ;
#8 = CC_DESIGN_PERSON_AND_ORGANIZATION_ASSIGNMENT ( #88, #176, ( #80 ) ) ;
#9 = FACE_BOUND ( 'NONE', #248, .T. ) ;
#10 = EDGE_LOOP ( 'NONE', ( #149 ) ) ;
#11 = PERSON_AND_ORGANIZATION ( #160, #62 ) ;
#12 = ORIENTED_EDGE ( 'NONE', *, *, #163, .F. ) ;
#13 = CC_DESIGN_PERSON_AND_ORGANIZATION_ASSIGNMENT ( #173, #287, ( #93 ) ) ;
#14 = AXIS2_PLACEMENT_3D ( 'NONE', #142, #116, #66 ) ;
#15 = DIRECTION ( 'NONE',  ( -4.275831445896959482E-31, -1.000000000000000000, -1.224646799147353454E-16 ) ) ;
#16 = DATE_AND_TIME ( #103, #297 ) ;
#17 = ORIENTED_EDGE ( 'NONE', *, *, #296, .F. ) ;
#18 = FACE_OUTER_BOUND ( 'NONE', #288, .T. ) ;
#19 = CC_DESIGN_APPROVAL ( #90, ( #93 ) ) ;
#20 = PLANE ( 'NONE',  #207 ) ;
#21 = FACE_OUTER_BOUND ( 'NONE', #35, .T. ) ;
#22 = CARTESIAN_POINT ( 'NONE',  ( 8.728703347107827472E-16, -3.061616997868381785E-17, 0.2499999999999998335 ) ) ;
#23 = CARTESIAN_POINT ( 'NONE',  ( 2.129803616694311221E-13, -7.470345474798856659E-15, 61.00000000000000000 ) ) ;
#24 = APPLICATION_CONTEXT ( 'configuration controlled 3d designs of mechanical parts and assemblies' ) ;
#25 = VERTEX_POINT ( 'NONE', #72 ) ;
#26 = PERSON_AND_ORGANIZATION ( #160, #62 ) ;
#27 = AXIS2_PLACEMENT_3D ( 'NONE', #259, #238, #101 ) ;
#28 = LOCAL_TIME ( 10, 36, 54.00000000000000000, #79 ) ;
#29 = APPLICATION_PROTOCOL_DEFINITION ( 'international standard', 'config_control_design', 1994, #138 ) ;
#30 = CARTESIAN_POINT ( 'NONE',  ( 3.491481338843133355E-14, 1.378499999999998726, 10.00000000000000000 ) ) ;
#31 = EDGE_LOOP ( 'NONE', ( #239 ) ) ;
#32 = AXIS2_PLACEMENT_3D ( 'NONE', #299, #114, #164 ) ;
#33 = COORDINATED_UNIVERSAL_TIME_OFFSET ( 1, 0, .AHEAD. ) ;
#34 = PERSON_AND_ORGANIZATION ( #160, #62 ) ;
#35 = EDGE_LOOP ( 'NONE', ( #87 ) ) ;
#36 = DATE_TIME_ROLE ( 'classification_date' ) ;
#37 = FACE_OUTER_BOUND ( 'NONE', #31, .T. ) ;
#38 = CONICAL_SURFACE ( 'NONE', #216, 1.200000000000001510, 0.7853981633974453924 ) ;
#39 = APPROVAL_DATE_TIME ( #217, #270 ) ;
#40 = ORIENTED_EDGE ( 'NONE', *, *, #156, .F. ) ;
#41 = ADVANCED_FACE ( 'NONE', ( #262, #9 ), #144, .T. ) ;
#42 = CARTESIAN_POINT ( 'NONE',  ( -2.638535269547221629E-31, 9.254735909197365395E-33, -7.557065364185716026E-17 ) ) ;
#43 = DIRECTION ( 'NONE',  ( -3.491481338843133355E-15, 1.224646799147353454E-16, -1.000000000000000000 ) ) ;
#44 = AXIS2_PLACEMENT_3D ( 'NONE', #253, #98, #229 ) ;
#45 = DIRECTION ( 'NONE',  ( 0.0000000000000000000, 1.000000000000000000, 0.0000000000000000000 ) ) ;
#46 = CARTESIAN_POINT ( 'NONE',  ( 3.491481338843133355E-14, -1.224646799147353454E-15, 10.00000000000000000 ) ) ;
#47 = DIRECTION ( 'NONE',  ( 4.275831445896960358E-31, 1.000000000000000000, 1.224646799147353454E-16 ) ) ;
#48 = CIRCLE ( 'NONE', #117, 1.200000000000001510 ) ;
#49 = ADVANCED_FACE ( 'NONE', ( #197, #147 ), #241, .T. ) ;
#50 = MANIFOLD_SOLID_BREP ( 'Corps-Déplacer/Copier1[1]', #125 ) ;
#51 = AXIS2_PLACEMENT_3D ( 'NONE', #233, #75, #76 ) ;
#52 = CYLINDRICAL_SURFACE ( 'NONE', #51, 1.378499999999999392 ) ;
#53 = DIRECTION ( 'NONE',  ( 0.0000000000000000000, 1.000000000000000000, 0.0000000000000000000 ) ) ;
#54 = AXIS2_PLACEMENT_3D ( 'NONE', #276, #115, #206 ) ;
#55 = DATE_AND_TIME ( #129, #78 ) ;
#56 = DIRECTION ( 'NONE',  ( -3.491481338843133355E-15, 1.224646799147353454E-16, -1.000000000000000000 ) ) ;
#57 = APPROVAL_STATUS ( 'not_yet_approved' ) ;
#58 = EDGE_LOOP ( 'NONE', ( #265 ) ) ;
#59 = CALENDAR_DATE ( 2021, 30, 11 ) ;
#60 = PRODUCT ( '200122', '200122', '', ( #171 ) ) ;
#61 = CIRCLE ( 'NONE', #32, 1.499999999999996003 ) ;
#62 = ORGANIZATION ( 'UNSPECIFIED', 'UNSPECIFIED', '' ) ;
#63 = CC_DESIGN_SECURITY_CLASSIFICATION ( #273, ( #93 ) ) ;
#64 = CARTESIAN_POINT ( 'NONE',  ( 3.491481338843133355E-14, 1.033709430199683952E-32, 10.00000000000000000 ) ) ;
#65 = DIRECTION ( 'NONE',  ( 3.491481338843133355E-15, -1.224646799147353454E-16, 1.000000000000000000 ) ) ;
#66 = DIRECTION ( 'NONE',  ( 0.0000000000000000000, 1.000000000000000000, 0.0000000000000000000 ) ) ;
#67 = AXIS2_PLACEMENT_3D ( 'NONE', #46, #43, #275 ) ;
#68 = LOCAL_TIME ( 10, 36, 54.00000000000000000, #150 ) ;
#69 = FACE_BOUND ( 'NONE', #91, .T. ) ;
#70 = CYLINDRICAL_SURFACE ( 'NONE', #290, 1.499999999999998668 ) ;
#71 = ADVANCED_FACE ( 'NONE', ( #97, #255 ), #38, .T. ) ;
#72 = CARTESIAN_POINT ( 'NONE',  ( 2.129803616694311221E-13, 1.199999999999993960, 61.00000000000000000 ) ) ;
#73 = VERTEX_POINT ( 'NONE', #5 ) ;
#74 = ADVANCED_FACE ( 'NONE', ( #69, #139 ), #303, .T. ) ;
#75 = DIRECTION ( 'NONE',  ( -3.491481338843133355E-15, 1.224646799147353454E-16, -1.000000000000000000 ) ) ;
#76 = DIRECTION ( 'NONE',  ( 4.275831445896959482E-31, 1.000000000000000000, 1.224646799147353207E-16 ) ) ;
#77 = CIRCLE ( 'NONE', #191, 1.205384493975580007 ) ;
#78 = LOCAL_TIME ( 10, 36, 54.00000000000000000, #133 ) ;
#79 = COORDINATED_UNIVERSAL_TIME_OFFSET ( 1, 0, .AHEAD. ) ;
#80 = PRODUCT_DEFINITION ( 'UNKNOWN', '', #93, #158 ) ;
#81 = EDGE_LOOP ( 'NONE', ( #84 ) ) ;
#82 = APPROVAL ( #282, 'UNSPECIFIED' ) ;
#83 = APPROVAL_DATE_TIME ( #16, #90 ) ;
#84 = ORIENTED_EDGE ( 'NONE', *, *, #108, .T. ) ;
#85 = CONICAL_SURFACE ( 'NONE', #254, 1.499999999999996003, 0.1745329251994266473 ) ;
#86 = PERSON_AND_ORGANIZATION ( #160, #62 ) ;
#87 = ORIENTED_EDGE ( 'NONE', *, *, #163, .T. ) ;
#88 = PERSON_AND_ORGANIZATION ( #160, #62 ) ;
#89 = EDGE_LOOP ( 'NONE', ( #40 ) ) ;
#90 = APPROVAL ( #292, 'UNSPECIFIED' ) ;
#91 = EDGE_LOOP ( 'NONE', ( #12 ) ) ;
#92 = AXIS2_PLACEMENT_3D ( 'NONE', #202, #181, #118 ) ;
#93 = PRODUCT_DEFINITION_FORMATION_WITH_SPECIFIED_SOURCE ( 'ANY', '', #60, .NOT_KNOWN. ) ;
#94 = DIRECTION ( 'NONE',  ( -3.491481338843133355E-15, 1.224646799147353454E-16, -1.000000000000000000 ) ) ;
#95 = DIRECTION ( 'NONE',  ( -3.491481338843133355E-15, 1.224646799147353454E-16, -1.000000000000000000 ) ) ;
#96 = EDGE_CURVE ( 'NONE', #25, #25, #48, .T. ) ;
#97 = FACE_OUTER_BOUND ( 'NONE', #128, .T. ) ;
#98 = DIRECTION ( 'NONE',  ( -3.491481338843133355E-15, 1.224646799147353454E-16, -1.000000000000000000 ) ) ;
#99 = EDGE_CURVE ( 'NONE', #123, #123, #61, .T. ) ;
#100 = DIRECTION ( 'NONE',  ( 0.0000000000000000000, 1.000000000000000000, 0.0000000000000000000 ) ) ;
#101 = DIRECTION ( 'NONE',  ( 0.0000000000000000000, 1.000000000000000000, 0.0000000000000000000 ) ) ;
#102 = PERSON_AND_ORGANIZATION_ROLE ( 'design_owner' ) ;
#103 = CALENDAR_DATE ( 2021, 30, 11 ) ;
#104 = FACE_OUTER_BOUND ( 'NONE', #225, .T. ) ;
#105 = DIRECTION ( 'NONE',  ( 3.491481338843133355E-15, -1.224646799147353454E-16, 1.000000000000000000 ) ) ;
#106 = DATE_TIME_ROLE ( 'creation_date' ) ;
#107 = PLANE ( 'NONE',  #232 ) ;
#108 = EDGE_CURVE ( 'NONE', #119, #119, #212, .T. ) ;
#109 = CARTESIAN_POINT ( 'NONE',  ( 0.0000000000000000000, 0.0000000000000000000, 0.0000000000000000000 ) ) ;
#110 = EDGE_LOOP ( 'NONE', ( #295 ) ) ;
#111 = CARTESIAN_POINT ( 'NONE',  ( 9.433334530136822643E-14, -3.308768346860495140E-15, 27.01814391842764707 ) ) ;
#112 = CIRCLE ( 'NONE', #67, 1.378500000000000059 ) ;
#113 = UNCERTAINTY_MEASURE_WITH_UNIT (LENGTH_MEASURE( 1.000000000000000082E-05 ), #257, 'distance_accuracy_value', 'NONE');
#114 = DIRECTION ( 'NONE',  ( -3.491481338843133355E-15, 1.224646799147353454E-16, -1.000000000000000000 ) ) ;
#115 = DIRECTION ( 'NONE',  ( -3.491481338843133355E-15, 1.224646799147353454E-16, -1.000000000000000000 ) ) ;
#116 = DIRECTION ( 'NONE',  ( -3.491481338843133355E-15, 1.224646799147353454E-16, -1.000000000000000000 ) ) ;
#117 = AXIS2_PLACEMENT_3D ( 'NONE', #1, #95, #302 ) ;
#118 = DIRECTION ( 'NONE',  ( 4.275831445896959482E-31, 1.000000000000000000, 1.224646799147353454E-16 ) ) ;
#119 = VERTEX_POINT ( 'NONE', #30 ) ;
#120 = APPLICATION_PROTOCOL_DEFINITION ( 'international standard', 'config_control_design', 1994, #24 ) ;
#121 = AXIS2_PLACEMENT_3D ( 'NONE', #231, #141, #161 ) ;
#122 = CARTESIAN_POINT ( 'NONE',  ( 9.433334530136822643E-14, 1.499999999999992673, 27.01814391842764707 ) ) ;
#123 = VERTEX_POINT ( 'NONE', #122 ) ;
#124 = ADVANCED_FACE ( 'NONE', ( #184 ), #250, .F. ) ;
#125 = CLOSED_SHELL ( 'NONE', ( #185, #41, #49, #3, #289, #263, #71, #124 ) ) ;
#126 = APPROVAL_PERSON_ORGANIZATION ( #34, #90, #285 ) ;
#127 = APPROVAL_ROLE ( '' ) ;
#128 = EDGE_LOOP ( 'NONE', ( #294 ) ) ;
#129 = CALENDAR_DATE ( 2021, 30, 11 ) ;
#130 = EDGE_LOOP ( 'NONE', ( #267 ) ) ;
#131 = ORIENTED_EDGE ( 'NONE', *, *, #96, .F. ) ;
#132 = AXIS2_PLACEMENT_3D ( 'NONE', #22, #298, #269 ) ;
#133 = COORDINATED_UNIVERSAL_TIME_OFFSET ( 1, 0, .AHEAD. ) ;
#134 = ORIENTED_EDGE ( 'NONE', *, *, #108, .F. ) ;
#135 = DIRECTION ( 'NONE',  ( -4.275831445896959482E-31, -1.000000000000000000, -1.224646799147353454E-16 ) ) ;
#136 = CC_DESIGN_PERSON_AND_ORGANIZATION_ASSIGNMENT ( #26, #102, ( #60 ) ) ;
#137 = CC_DESIGN_DATE_AND_TIME_ASSIGNMENT ( #264, #36, ( #273 ) ) ;
#138 = APPLICATION_CONTEXT ( 'configuration controlled 3d designs of mechanical parts and assemblies' ) ;
#139 = FACE_OUTER_BOUND ( 'NONE', #58, .T. ) ;
#140 = CIRCLE ( 'NONE', #27, 1.175000000000000266 ) ;
#141 = DIRECTION ( 'NONE',  ( -3.491481338843133355E-15, 1.224646799147353454E-16, -1.000000000000000000 ) ) ;
#142 = CARTESIAN_POINT ( 'NONE',  ( 3.614546398369628854E-14, -1.267812211363458297E-15, 10.35247233934027378 ) ) ;
#143 = CARTESIAN_POINT ( 'NONE',  ( 2.119329172677781757E-13, -7.433606070824434221E-15, 60.69999999999999574 ) ) ;
#144 = CONICAL_SURFACE ( 'NONE', #247, 1.174999999999998268, 0.5235987755982930425 ) ;
#145 = FACE_OUTER_BOUND ( 'NONE', #178, .T. ) ;
#146 = APPROVAL_ROLE ( '' ) ;
#147 = FACE_OUTER_BOUND ( 'NONE', #172, .T. ) ;
#148 = ORIENTED_EDGE ( 'NONE', *, *, #99, .F. ) ;
#149 = ORIENTED_EDGE ( 'NONE', *, *, #99, .T. ) ;
#150 = COORDINATED_UNIVERSAL_TIME_OFFSET ( 1, 0, .AHEAD. ) ;
#151 = ORIENTED_EDGE ( 'NONE', *, *, #223, .F. ) ;
#152 = MANIFOLD_SOLID_BREP ( 'Corps-Déplacer/Copier1[2]', #170 ) ;
#153 =( GEOMETRIC_REPRESENTATION_CONTEXT ( 3 ) GLOBAL_UNCERTAINTY_ASSIGNED_CONTEXT ( ( #113 ) ) GLOBAL_UNIT_ASSIGNED_CONTEXT ( ( #257, #189, #281 ) ) REPRESENTATION_CONTEXT ( 'NONE', 'WORKASPACE' ) );
#154 = APPROVAL_PERSON_ORGANIZATION ( #190, #82, #146 ) ;
#155 = FACE_OUTER_BOUND ( 'NONE', #110, .T. ) ;
#156 = EDGE_CURVE ( 'NONE', #236, #236, #240, .T. ) ;
#157 = CC_DESIGN_DATE_AND_TIME_ASSIGNMENT ( #55, #106, ( #80 ) ) ;
#158 = DESIGN_CONTEXT ( 'detailed design', #24, 'design' ) ;
#159 = FACE_OUTER_BOUND ( 'NONE', #10, .T. ) ;
#160 = PERSON ( 'UNSPECIFIED', 'UNSPECIFIED', 'UNSPECIFIED', ('UNSPECIFIED'), ('UNSPECIFIED'), ('UNSPECIFIED') ) ;
#161 = DIRECTION ( 'NONE',  ( 4.191360053073422105E-31, 1.000000000000000000, 1.179762973324815383E-16 ) ) ;
#162 = CIRCLE ( 'NONE', #278, 1.500000000000001332 ) ;
#163 = EDGE_CURVE ( 'NONE', #188, #188, #203, .T. ) ;
#164 = DIRECTION ( 'NONE',  ( 0.0000000000000000000, 1.000000000000000000, 0.0000000000000000000 ) ) ;
#165 = DIRECTION ( 'NONE',  ( -3.491481338843133355E-15, 1.224646799147353454E-16, -1.000000000000000000 ) ) ;
#166 = CC_DESIGN_APPROVAL ( #270, ( #273 ) ) ;
#167 = CARTESIAN_POINT ( 'NONE',  ( 8.849961221477468513E-14, 1.205384493975576898, 25.34729635533384240 ) ) ;
#168 = DIRECTION ( 'NONE',  ( 0.0000000000000000000, -1.000000000000000000, 0.0000000000000000000 ) ) ;
#169 = VERTEX_POINT ( 'NONE', #277 ) ;
#170 = CLOSED_SHELL ( 'NONE', ( #284, #74, #301, #6 ) ) ;
#171 = MECHANICAL_CONTEXT ( 'NONE', #138, 'mechanical' ) ;
#172 = EDGE_LOOP ( 'NONE', ( #221 ) ) ;
#173 = PERSON_AND_ORGANIZATION ( #160, #62 ) ;
#174 = PRODUCT_DEFINITION_SHAPE ( 'NONE', 'NONE',  #80 ) ;
#175 = EDGE_LOOP ( 'NONE', ( #151 ) ) ;
#176 = PERSON_AND_ORGANIZATION_ROLE ( 'creator' ) ;
#177 = ORIENTED_EDGE ( 'NONE', *, *, #96, .T. ) ;
#178 = EDGE_LOOP ( 'NONE', ( #293 ) ) ;
#179 = AXIS2_PLACEMENT_3D ( 'NONE', #109, #200, #205 ) ;
#180 = DIRECTION ( 'NONE',  ( -3.491481338843133355E-15, 1.224646799147353454E-16, -1.000000000000000000 ) ) ;
#181 = DIRECTION ( 'NONE',  ( -3.491481338843133355E-15, 1.224646799147353454E-16, -1.000000000000000000 ) ) ;
#182 = DIRECTION ( 'NONE',  ( -4.275831445896959482E-31, -1.000000000000000000, -1.224646799147353454E-16 ) ) ;
#183 = DIRECTION ( 'NONE',  ( 3.491481338843133355E-15, -1.224646799147353454E-16, 1.000000000000000000 ) ) ;
#184 = FACE_OUTER_BOUND ( 'NONE', #199, .T. ) ;
#185 = ADVANCED_FACE ( 'NONE', ( #18 ), #20, .F. ) ;
#186 = VERTEX_POINT ( 'NONE', #213 ) ;
#187 = CC_DESIGN_PERSON_AND_ORGANIZATION_ASSIGNMENT ( #11, #242, ( #93 ) ) ;
#188 = VERTEX_POINT ( 'NONE', #7 ) ;
#189 =( NAMED_UNIT ( * ) PLANE_ANGLE_UNIT ( ) SI_UNIT ( $, .RADIAN. ) );
#190 = PERSON_AND_ORGANIZATION ( #160, #62 ) ;
#191 = AXIS2_PLACEMENT_3D ( 'NONE', #272, #300, #45 ) ;
#192 = AXIS2_PLACEMENT_3D ( 'NONE', #235, #258, #2 ) ;
#193 = COORDINATED_UNIVERSAL_TIME_OFFSET ( 1, 0, .AHEAD. ) ;
#194 = PERSON_AND_ORGANIZATION ( #160, #62 ) ;
#195 = CARTESIAN_POINT ( 'NONE',  ( 3.614546398369628854E-14, -1.267812211363458297E-15, 10.35247233934027378 ) ) ;
#196 = DATE_AND_TIME ( #246, #291 ) ;
#197 = FACE_OUTER_BOUND ( 'NONE', #89, .T. ) ;
#198 = CC_DESIGN_PERSON_AND_ORGANIZATION_ASSIGNMENT ( #86, #261, ( #273 ) ) ;
#199 = EDGE_LOOP ( 'NONE', ( #131 ) ) ;
#200 = DIRECTION ( 'NONE',  ( -3.491481338843133355E-15, 1.224646799147353454E-16, -1.000000000000000000 ) ) ;
#201 = ORIENTED_EDGE ( 'NONE', *, *, #156, .T. ) ;
#202 = CARTESIAN_POINT ( 'NONE',  ( 2.129803616694311221E-13, 8.998558695971049855E-33, 61.00000000000000000 ) ) ;
#203 = CIRCLE ( 'NONE', #54, 1.234162432702594181 ) ;
#204 = FACE_OUTER_BOUND ( 'NONE', #243, .T. ) ;
#205 = DIRECTION ( 'NONE',  ( 4.275831445896959482E-31, 1.000000000000000000, 1.224646799147353454E-16 ) ) ;
#206 = DIRECTION ( 'NONE',  ( 4.275831445896960358E-31, 1.000000000000000000, 1.224646799147353700E-16 ) ) ;
#207 = AXIS2_PLACEMENT_3D ( 'NONE', #271, #183, #182 ) ;
#208 = CC_DESIGN_APPROVAL ( #82, ( #80 ) ) ;
#209 = CARTESIAN_POINT ( 'NONE',  ( 0.0000000000000000000, 0.0000000000000000000, 0.0000000000000000000 ) ) ;
#210 = CARTESIAN_POINT ( 'NONE',  ( 2.119329172677781757E-13, 1.499999999999994005, 60.69999999999999574 ) ) ;
#211 = VERTEX_POINT ( 'NONE', #167 ) ;
#212 = CIRCLE ( 'NONE', #44, 1.378500000000000059 ) ;
#213 = CARTESIAN_POINT ( 'NONE',  ( 3.491481338843133355E-14, 1.378499999999998726, 10.00000000000000000 ) ) ;
#214 = EDGE_CURVE ( 'NONE', #211, #211, #77, .T. ) ;
#215 = CARTESIAN_POINT ( 'NONE',  ( 3.614546398369628854E-14, 1.174999999999996936, 10.35247233934027378 ) ) ;
#216 = AXIS2_PLACEMENT_3D ( 'NONE', #23, #180, #230 ) ;
#217 = DATE_AND_TIME ( #59, #28 ) ;
#218 = DIRECTION ( 'NONE',  ( -3.491481338843133355E-15, 1.224646799147353454E-16, -1.000000000000000000 ) ) ;
#219 = ORIENTED_EDGE ( 'NONE', *, *, #223, .T. ) ;
#220 = CALENDAR_DATE ( 2021, 30, 11 ) ;
#221 = ORIENTED_EDGE ( 'NONE', *, *, #296, .T. ) ;
#222 = DIRECTION ( 'NONE',  ( 4.275831445896959482E-31, 1.000000000000000000, 1.224646799147353454E-16 ) ) ;
#223 = EDGE_CURVE ( 'NONE', #186, #186, #112, .T. ) ;
#224 = SHAPE_DEFINITION_REPRESENTATION ( #174, #280 ) ;
#225 = EDGE_LOOP ( 'NONE', ( #134 ) ) ;
#226 = FACE_BOUND ( 'NONE', #130, .T. ) ;
#227 = PLANE ( 'NONE',  #283 ) ;
#228 = CIRCLE ( 'NONE', #121, 1.378499999999998726 ) ;
#229 = DIRECTION ( 'NONE',  ( 0.0000000000000000000, 1.000000000000000000, 0.0000000000000000000 ) ) ;
#230 = DIRECTION ( 'NONE',  ( 0.0000000000000000000, 1.000000000000000000, 0.0000000000000000000 ) ) ;
#231 = CARTESIAN_POINT ( 'NONE',  ( 8.728703347107827472E-16, -3.061616997868381785E-17, 0.2499999999999998335 ) ) ;
#232 = AXIS2_PLACEMENT_3D ( 'NONE', #64, #105, #15 ) ;
#233 = CARTESIAN_POINT ( 'NONE',  ( 0.0000000000000000000, 0.0000000000000000000, 0.0000000000000000000 ) ) ;
#234 = PRODUCT_RELATED_PRODUCT_CATEGORY ( 'detail', '', ( #60 ) ) ;
#235 = CARTESIAN_POINT ( 'NONE',  ( 0.0000000000000000000, 0.0000000000000000000, 0.0000000000000000000 ) ) ;
#236 = VERTEX_POINT ( 'NONE', #215 ) ;
#237 = AXIS2_PLACEMENT_3D ( 'NONE', #260, #218, #222 ) ;
#238 = DIRECTION ( 'NONE',  ( -3.491481338843133355E-15, 1.224646799147353454E-16, -1.000000000000000000 ) ) ;
#239 = ORIENTED_EDGE ( 'NONE', *, *, #214, .T. ) ;
#240 = CIRCLE ( 'NONE', #14, 1.174999999999998268 ) ;
#241 = CYLINDRICAL_SURFACE ( 'NONE', #179, 1.174999999999999378 ) ;
#242 = PERSON_AND_ORGANIZATION_ROLE ( 'design_supplier' ) ;
#243 = EDGE_LOOP ( 'NONE', ( #148 ) ) ;
#244 = APPROVAL_DATE_TIME ( #196, #82 ) ;
#245 = EDGE_LOOP ( 'NONE', ( #177 ) ) ;
#246 = CALENDAR_DATE ( 2021, 30, 11 ) ;
#247 = AXIS2_PLACEMENT_3D ( 'NONE', #195, #56, #53 ) ;
#248 = EDGE_LOOP ( 'NONE', ( #201 ) ) ;
#249 = APPROVAL_PERSON_ORGANIZATION ( #194, #270, #127 ) ;
#250 = PLANE ( 'NONE',  #92 ) ;
#251 = DIRECTION ( 'NONE',  ( 3.491481338843133355E-15, -1.224646799147353454E-16, 1.000000000000000000 ) ) ;
#252 = EDGE_CURVE ( 'NONE', #279, #279, #162, .T. ) ;
#253 = CARTESIAN_POINT ( 'NONE',  ( 3.491481338843133355E-14, -1.224646799147353454E-15, 10.00000000000000000 ) ) ;
#254 = AXIS2_PLACEMENT_3D ( 'NONE', #111, #251, #168 ) ;
#255 = FACE_BOUND ( 'NONE', #245, .T. ) ;
#256 = TOROIDAL_SURFACE ( 'NONE', #237, 3.175000000000000266, 2.000000000000000888 ) ;
#257 =( LENGTH_UNIT ( ) NAMED_UNIT ( * ) SI_UNIT ( .MILLI., .METRE. ) );
#258 = DIRECTION ( 'NONE',  ( 0.0000000000000000000, 0.0000000000000000000, 1.000000000000000000 ) ) ;
#259 = CARTESIAN_POINT ( 'NONE',  ( 8.728703347107833388E-14, -3.061616997868383831E-15, 25.00000000000000000 ) ) ;
#260 = CARTESIAN_POINT ( 'NONE',  ( 8.728703347107833388E-14, -3.035766082959412415E-15, 25.00000000000000000 ) ) ;
#261 = PERSON_AND_ORGANIZATION_ROLE ( 'classification_officer' ) ;
#262 = FACE_OUTER_BOUND ( 'NONE', #175, .T. ) ;
#263 = ADVANCED_FACE ( 'NONE', ( #204, #155 ), #70, .T. ) ;
#264 = DATE_AND_TIME ( #220, #68 ) ;
#265 = ORIENTED_EDGE ( 'NONE', *, *, #274, .T. ) ;
#266 = SECURITY_CLASSIFICATION_LEVEL ( 'unclassified' ) ;
#267 = ORIENTED_EDGE ( 'NONE', *, *, #214, .F. ) ;
#268 = FACE_OUTER_BOUND ( 'NONE', #286, .T. ) ;
#269 = DIRECTION ( 'NONE',  ( -4.191360053073422105E-31, -1.000000000000000000, -1.179762973324815383E-16 ) ) ;
#270 = APPROVAL ( #57, 'UNSPECIFIED' ) ;
#271 = CARTESIAN_POINT ( 'NONE',  ( 3.491481338843133355E-14, 1.033709430199683952E-32, 10.00000000000000000 ) ) ;
#272 = CARTESIAN_POINT ( 'NONE',  ( 8.849961221477468513E-14, -3.104148534859897150E-15, 25.34729635533384240 ) ) ;
#273 = SECURITY_CLASSIFICATION ( '', '', #266 ) ;
#274 = EDGE_CURVE ( 'NONE', #169, #169, #228, .T. ) ;
#275 = DIRECTION ( 'NONE',  ( 0.0000000000000000000, 1.000000000000000000, 0.0000000000000000000 ) ) ;
#276 = CARTESIAN_POINT ( 'NONE',  ( -5.277070539094443258E-31, 1.850947181839473079E-32, -1.511413072837143205E-16 ) ) ;
#277 = CARTESIAN_POINT ( 'NONE',  ( 8.728703347107833388E-16, 1.378499999999998726, 0.2500000000000000000 ) ) ;
#278 = AXIS2_PLACEMENT_3D ( 'NONE', #143, #94, #100 ) ;
#279 = VERTEX_POINT ( 'NONE', #210 ) ;
#280 = ADVANCED_BREP_SHAPE_REPRESENTATION ( '200122', ( #50, #152, #192 ), #153 ) ;
#281 =( NAMED_UNIT ( * ) SI_UNIT ( $, .STERADIAN. ) SOLID_ANGLE_UNIT ( ) );
#282 = APPROVAL_STATUS ( 'not_yet_approved' ) ;
#283 = AXIS2_PLACEMENT_3D ( 'NONE', #42, #65, #135 ) ;
#284 = ADVANCED_FACE ( 'NONE', ( #21 ), #227, .F. ) ;
#285 = APPROVAL_ROLE ( '' ) ;
#286 = EDGE_LOOP ( 'NONE', ( #17 ) ) ;
#287 = PERSON_AND_ORGANIZATION_ROLE ( 'creator' ) ;
#288 = EDGE_LOOP ( 'NONE', ( #219 ) ) ;
#289 = ADVANCED_FACE ( 'NONE', ( #226, #159 ), #85, .T. ) ;
#290 = AXIS2_PLACEMENT_3D ( 'NONE', #209, #165, #47 ) ;
#291 = LOCAL_TIME ( 10, 36, 54.00000000000000000, #193 ) ;
#292 = APPROVAL_STATUS ( 'not_yet_approved' ) ;
#293 = ORIENTED_EDGE ( 'NONE', *, *, #274, .F. ) ;
#294 = ORIENTED_EDGE ( 'NONE', *, *, #252, .F. ) ;
#295 = ORIENTED_EDGE ( 'NONE', *, *, #252, .T. ) ;
#296 = EDGE_CURVE ( 'NONE', #73, #73, #140, .T. ) ;
#297 = LOCAL_TIME ( 10, 36, 54.00000000000000000, #33 ) ;
#298 = DIRECTION ( 'NONE',  ( 3.491481338843133355E-15, -1.224646799147353454E-16, 1.000000000000000000 ) ) ;
#299 = CARTESIAN_POINT ( 'NONE',  ( 9.433334530136822643E-14, -3.308768346860495140E-15, 27.01814391842764707 ) ) ;
#300 = DIRECTION ( 'NONE',  ( -3.491481338843133355E-15, 1.224646799147353454E-16, -1.000000000000000000 ) ) ;
#301 = ADVANCED_FACE ( 'NONE', ( #145, #4 ), #52, .T. ) ;
#302 = DIRECTION ( 'NONE',  ( 0.0000000000000000000, 1.000000000000000000, 0.0000000000000000000 ) ) ;
#303 = CONICAL_SURFACE ( 'NONE', #132, 1.378499999999998726, 0.5235987755982927094 ) ;
ENDSEC;
END-ISO-10303-21;
