ISO-10303-21;
HEADER;
FILE_DESCRIPTION (( 'STEP AP203' ),
    '1' );
FILE_NAME ('200121.step',
    '2021-11-30T06:44:53',
    ( '' ),
    ( '' ),
    'SwSTEP 2.0',
    'SolidWorks 2019',
    '' );
FILE_SCHEMA (( 'CONFIG_CONTROL_DESIGN' ));
ENDSEC;

DATA;
#1 = CIRCLE ( 'NONE', #130, 1.500000000000001554 ) ;
#2 = DIRECTION ( 'NONE',  ( 1.000000000000000000, 0.0000000000000000000, 0.0000000000000000000 ) ) ;
#3 = CARTESIAN_POINT ( 'NONE',  ( 1.735266225405037467E-13, 1.499999999999995559, 49.70000000000000284 ) ) ;
#4 = DIRECTION ( 'NONE',  ( 0.0000000000000000000, 1.000000000000000000, 0.0000000000000000000 ) ) ;
#5 = COORDINATED_UNIVERSAL_TIME_OFFSET ( 1, 0, .AHEAD. ) ;
#6 = CYLINDRICAL_SURFACE ( 'NONE', #240, 1.499999999999999112 ) ;
#7 = ORIENTED_EDGE ( 'NONE', *, *, #161, .T. ) ;
#8 = ADVANCED_FACE ( 'NONE', ( #49, #137 ), #299, .F. ) ;
#9 = PERSON_AND_ORGANIZATION ( #248, #102 ) ;
#10 = CONICAL_SURFACE ( 'NONE', #166, 1.200000000000001732, 0.7853981633974453924 ) ;
#11 = FACE_BOUND ( 'NONE', #114, .T. ) ;
#12 = CARTESIAN_POINT ( 'NONE',  ( 2.793185071074506684E-14, 7.712514682338585971E-33, 8.000000000000000000 ) ) ;
#13 = FACE_OUTER_BOUND ( 'NONE', #60, .T. ) ;
#14 = CIRCLE ( 'NONE', #183, 1.028499999999999970 ) ;
#15 = EDGE_CURVE ( 'NONE', #57, #57, #83, .T. ) ;
#16 = DIRECTION ( 'NONE',  ( 3.491481338843133355E-15, -1.224646799147353207E-16, 1.000000000000000000 ) ) ;
#17 = MANIFOLD_SOLID_BREP ( 'Corps-Déplacer/Copier1[1]', #41 ) ;
#18 = EDGE_LOOP ( 'NONE', ( #157 ) ) ;
#19 = DIRECTION ( 'NONE',  ( 0.0000000000000000000, 1.000000000000000000, 0.0000000000000000000 ) ) ;
#20 = LOCAL_TIME ( 7, 44, 53.00000000000000000, #235 ) ;
#21 = AXIS2_PLACEMENT_3D ( 'NONE', #144, #103, #142 ) ;
#22 = CALENDAR_DATE ( 2021, 30, 11 ) ;
#23 = CARTESIAN_POINT ( 'NONE',  ( 0.0000000000000000000, 0.0000000000000000000, 0.0000000000000000000 ) ) ;
#24 = PRODUCT ( '200121', '200121', '', ( #283 ) ) ;
#25 = FACE_OUTER_BOUND ( 'NONE', #62, .T. ) ;
#26 = ORIENTED_EDGE ( 'NONE', *, *, #27, .F. ) ;
#27 = EDGE_CURVE ( 'NONE', #194, #194, #1, .T. ) ;
#28 = AXIS2_PLACEMENT_3D ( 'NONE', #300, #229, #105 ) ;
#29 = EDGE_LOOP ( 'NONE', ( #109 ) ) ;
#30 = DIRECTION ( 'NONE',  ( -4.275831445896958607E-31, -1.000000000000000000, -1.224646799147353207E-16 ) ) ;
#31 = CIRCLE ( 'NONE', #200, 0.8841624327025945362 ) ;
#32 = FACE_BOUND ( 'NONE', #297, .T. ) ;
#33 = CARTESIAN_POINT ( 'NONE',  ( 1.745740669421566678E-13, 8.998558695971067645E-33, 50.00000000000000000 ) ) ;
#34 = EDGE_CURVE ( 'NONE', #191, #191, #133, .T. ) ;
#35 = DIRECTION ( 'NONE',  ( -3.491481338843133355E-15, 1.224646799147353207E-16, -1.000000000000000000 ) ) ;
#36 = AXIS2_PLACEMENT_3D ( 'NONE', #169, #149, #266 ) ;
#37 = CARTESIAN_POINT ( 'NONE',  ( 2.793185071074506684E-14, 7.712514682338585971E-33, 8.000000000000000000 ) ) ;
#38 = EDGE_LOOP ( 'NONE', ( #177 ) ) ;
#39 = APPROVAL ( #185, 'UNSPECIFIED' ) ;
#40 = FACE_OUTER_BOUND ( 'NONE', #199, .T. ) ;
#41 = CLOSED_SHELL ( 'NONE', ( #180, #274, #56, #8, #263, #107, #224, #138 ) ) ;
#42 = AXIS2_PLACEMENT_3D ( 'NONE', #97, #58, #174 ) ;
#43 = EDGE_CURVE ( 'NONE', #50, #50, #212, .T. ) ;
#44 = CARTESIAN_POINT ( 'NONE',  ( 7.583332832162122659E-14, 1.499999999999994005, 21.71952846431303286 ) ) ;
#45 =( LENGTH_UNIT ( ) NAMED_UNIT ( * ) SI_UNIT ( .MILLI., .METRE. ) );
#46 = EDGE_LOOP ( 'NONE', ( #298 ) ) ;
#47 = CC_DESIGN_PERSON_AND_ORGANIZATION_ASSIGNMENT ( #146, #96, ( #189 ) ) ;
#48 = DIRECTION ( 'NONE',  ( -3.491481338843133355E-15, 1.224646799147353207E-16, -1.000000000000000000 ) ) ;
#49 = FACE_OUTER_BOUND ( 'NONE', #153, .T. ) ;
#50 = VERTEX_POINT ( 'NONE', #111 ) ;
#51 = SHAPE_DEFINITION_REPRESENTATION ( #214, #89 ) ;
#52 = DATE_TIME_ROLE ( 'creation_date' ) ;
#53 = DIRECTION ( 'NONE',  ( -3.745123858798712674E-31, -1.000000000000000000, -1.054158650933889780E-16 ) ) ;
#54 = AXIS2_PLACEMENT_3D ( 'NONE', #23, #206, #2 ) ;
#55 = DIRECTION ( 'NONE',  ( -3.491481338843133355E-15, 1.224646799147353207E-16, -1.000000000000000000 ) ) ;
#56 = ADVANCED_FACE ( 'NONE', ( #273, #40 ), #154, .T. ) ;
#57 = VERTEX_POINT ( 'NONE', #147 ) ;
#58 = DIRECTION ( 'NONE',  ( 3.491481338843133355E-15, -1.224646799147353207E-16, 1.000000000000000000 ) ) ;
#59 = APPLICATION_CONTEXT ( 'configuration controlled 3d designs of mechanical parts and assemblies' ) ;
#60 = EDGE_LOOP ( 'NONE', ( #181 ) ) ;
#61 = AXIS2_PLACEMENT_3D ( 'NONE', #152, #128, #19 ) ;
#62 = EDGE_LOOP ( 'NONE', ( #202 ) ) ;
#63 = ORIENTED_EDGE ( 'NONE', *, *, #288, .F. ) ;
#64 = APPLICATION_CONTEXT ( 'configuration controlled 3d designs of mechanical parts and assemblies' ) ;
#65 = CC_DESIGN_SECURITY_CLASSIFICATION ( #78, ( #189 ) ) ;
#66 =( NAMED_UNIT ( * ) PLANE_ANGLE_UNIT ( ) SI_UNIT ( $, .RADIAN. ) );
#67 = VERTEX_POINT ( 'NONE', #159 ) ;
#68 = CIRCLE ( 'NONE', #184, 0.9053844939755814059 ) ;
#69 = DIRECTION ( 'NONE',  ( -3.491481338843133355E-15, 1.224646799147353207E-16, -1.000000000000000000 ) ) ;
#70 = EDGE_LOOP ( 'NONE', ( #87 ) ) ;
#71 = CARTESIAN_POINT ( 'NONE',  ( 6.405924284287275164E-14, 0.9053844939755791854, 18.34729635533384595 ) ) ;
#72 = AXIS2_PLACEMENT_3D ( 'NONE', #37, #16, #296 ) ;
#73 = APPROVAL_PERSON_ORGANIZATION ( #88, #39, #209 ) ;
#74 = DATE_AND_TIME ( #269, #220 ) ;
#75 = FACE_OUTER_BOUND ( 'NONE', #228, .T. ) ;
#76 = FACE_OUTER_BOUND ( 'NONE', #303, .T. ) ;
#77 = CC_DESIGN_DATE_AND_TIME_ASSIGNMENT ( #207, #52, ( #98 ) ) ;
#78 = SECURITY_CLASSIFICATION ( '', '', #173 ) ;
#79 = DIRECTION ( 'NONE',  ( -3.491481338843133355E-15, 1.224646799147353207E-16, -1.000000000000000000 ) ) ;
#80 = CALENDAR_DATE ( 2021, 30, 11 ) ;
#81 = CARTESIAN_POINT ( 'NONE',  ( 2.793185071074506684E-14, -9.797174393178825657E-16, 8.000000000000000000 ) ) ;
#82 = ORIENTED_EDGE ( 'NONE', *, *, #86, .T. ) ;
#83 = CIRCLE ( 'NONE', #158, 1.200000000000001732 ) ;
#84 = AXIS2_PLACEMENT_3D ( 'NONE', #81, #35, #245 ) ;
#85 = ORIENTED_EDGE ( 'NONE', *, *, #15, .T. ) ;
#86 = EDGE_CURVE ( 'NONE', #186, #186, #255, .T. ) ;
#87 = ORIENTED_EDGE ( 'NONE', *, *, #43, .F. ) ;
#88 = PERSON_AND_ORGANIZATION ( #248, #102 ) ;
#89 = ADVANCED_BREP_SHAPE_REPRESENTATION ( '200121', ( #17, #216, #54 ), #259 ) ;
#90 = VERTEX_POINT ( 'NONE', #192 ) ;
#91 = DATE_AND_TIME ( #279, #172 ) ;
#92 = ADVANCED_FACE ( 'NONE', ( #190 ), #287, .F. ) ;
#93 = CONICAL_SURFACE ( 'NONE', #251, 0.8749999999999987788, 0.5235987755982941527 ) ;
#94 = PERSON_AND_ORGANIZATION_ROLE ( 'creator' ) ;
#95 = DIRECTION ( 'NONE',  ( -3.491481338843133355E-15, 1.224646799147353207E-16, -1.000000000000000000 ) ) ;
#96 = PERSON_AND_ORGANIZATION_ROLE ( 'design_supplier' ) ;
#97 = CARTESIAN_POINT ( 'NONE',  ( 7.583332832162122659E-14, -2.659875101281078396E-15, 21.71952846431303286 ) ) ;
#98 = PRODUCT_DEFINITION ( 'UNKNOWN', '', #189, #252 ) ;
#99 = PERSON_AND_ORGANIZATION_ROLE ( 'classification_officer' ) ;
#100 = CARTESIAN_POINT ( 'NONE',  ( 1.745740669421566678E-13, -6.123233995736766085E-15, 50.00000000000000000 ) ) ;
#101 = APPROVAL_ROLE ( '' ) ;
#102 = ORGANIZATION ( 'UNSPECIFIED', 'UNSPECIFIED', '' ) ;
#103 = DIRECTION ( 'NONE',  ( -3.491481338843133355E-15, 1.224646799147353207E-16, -1.000000000000000000 ) ) ;
#104 = EDGE_LOOP ( 'NONE', ( #201 ) ) ;
#105 = DIRECTION ( 'NONE',  ( 0.0000000000000000000, 1.000000000000000000, 0.0000000000000000000 ) ) ;
#106 = DIRECTION ( 'NONE',  ( 4.275831445896959482E-31, 1.000000000000000000, 1.224646799147353207E-16 ) ) ;
#107 = ADVANCED_FACE ( 'NONE', ( #25, #210 ), #6, .T. ) ;
#108 = APPROVAL ( #170, 'UNSPECIFIED' ) ;
#109 = ORIENTED_EDGE ( 'NONE', *, *, #148, .F. ) ;
#110 = LOCAL_TIME ( 7, 44, 53.00000000000000000, #295 ) ;
#111 = CARTESIAN_POINT ( 'NONE',  ( 2.886013015238225878E-14, 0.8749999999999978906, 8.265869798961826831 ) ) ;
#112 = CARTESIAN_POINT ( 'NONE',  ( 1.735266225405037467E-13, -6.086494591762345225E-15, 49.70000000000000284 ) ) ;
#113 = PERSON_AND_ORGANIZATION ( #248, #102 ) ;
#114 = EDGE_LOOP ( 'NONE', ( #85 ) ) ;
#115 = CC_DESIGN_APPROVAL ( #39, ( #98 ) ) ;
#116 = CARTESIAN_POINT ( 'NONE',  ( 1.745740669421566678E-13, -6.123233995736766085E-15, 50.00000000000000000 ) ) ;
#117 =( NAMED_UNIT ( * ) SI_UNIT ( $, .STERADIAN. ) SOLID_ANGLE_UNIT ( ) );
#118 = ADVANCED_FACE ( 'NONE', ( #182, #277 ), #141, .T. ) ;
#119 = COORDINATED_UNIVERSAL_TIME_OFFSET ( 1, 0, .AHEAD. ) ;
#120 = DIRECTION ( 'NONE',  ( -3.491481338843133355E-15, 1.224646799147353207E-16, -1.000000000000000000 ) ) ;
#121 = PRODUCT_RELATED_PRODUCT_CATEGORY ( 'detail', '', ( #24 ) ) ;
#122 = FACE_OUTER_BOUND ( 'NONE', #46, .T. ) ;
#123 = PLANE ( 'NONE',  #204 ) ;
#124 = DIRECTION ( 'NONE',  ( -3.491481338843133355E-15, 1.224646799147353207E-16, -1.000000000000000000 ) ) ;
#125 = AXIS2_PLACEMENT_3D ( 'NONE', #281, #69, #179 ) ;
#126 = PLANE ( 'NONE',  #289 ) ;
#127 = ORIENTED_EDGE ( 'NONE', *, *, #148, .T. ) ;
#128 = DIRECTION ( 'NONE',  ( -3.491481338843133355E-15, 1.224646799147353207E-16, -1.000000000000000000 ) ) ;
#129 = ORIENTED_EDGE ( 'NONE', *, *, #15, .F. ) ;
#130 = AXIS2_PLACEMENT_3D ( 'NONE', #112, #208, #187 ) ;
#131 = CIRCLE ( 'NONE', #84, 1.028499999999999970 ) ;
#132 = CC_DESIGN_PERSON_AND_ORGANIZATION_ASSIGNMENT ( #113, #136, ( #24 ) ) ;
#133 = CIRCLE ( 'NONE', #125, 1.499999999999996669 ) ;
#134 = PERSON_AND_ORGANIZATION_ROLE ( 'creator' ) ;
#135 = DIRECTION ( 'NONE',  ( 4.275831445896958607E-31, 1.000000000000000000, 1.224646799147353207E-16 ) ) ;
#136 = PERSON_AND_ORGANIZATION_ROLE ( 'design_owner' ) ;
#137 = FACE_OUTER_BOUND ( 'NONE', #18, .T. ) ;
#138 = ADVANCED_FACE ( 'NONE', ( #75 ), #123, .F. ) ;
#139 = UNCERTAINTY_MEASURE_WITH_UNIT (LENGTH_MEASURE( 1.000000000000000082E-05 ), #45, 'distance_accuracy_value', 'NONE');
#140 = APPLICATION_PROTOCOL_DEFINITION ( 'international standard', 'config_control_design', 1994, #64 ) ;
#141 = CONICAL_SURFACE ( 'NONE', #258, 1.028499999999998860, 0.5235987755982923764 ) ;
#142 = DIRECTION ( 'NONE',  ( 3.745123858798712674E-31, 1.000000000000000000, 1.054158650933889780E-16 ) ) ;
#143 = APPROVAL_STATUS ( 'not_yet_approved' ) ;
#144 = CARTESIAN_POINT ( 'NONE',  ( 8.728703347107829444E-16, -3.061616997868381785E-17, 0.2499999999999998890 ) ) ;
#145 = DIRECTION ( 'NONE',  ( 0.0000000000000000000, 1.000000000000000000, 0.0000000000000000000 ) ) ;
#146 = PERSON_AND_ORGANIZATION ( #248, #102 ) ;
#147 = CARTESIAN_POINT ( 'NONE',  ( 1.745740669421566678E-13, 1.199999999999995515, 50.00000000000000000 ) ) ;
#148 = EDGE_CURVE ( 'NONE', #90, #90, #31, .T. ) ;
#149 = DIRECTION ( 'NONE',  ( -3.491481338843133355E-15, 1.224646799147353207E-16, -1.000000000000000000 ) ) ;
#150 = EDGE_LOOP ( 'NONE', ( #237 ) ) ;
#151 = CIRCLE ( 'NONE', #21, 1.028499999999998860 ) ;
#152 = CARTESIAN_POINT ( 'NONE',  ( 2.886013015238225878E-14, -1.012277099146737755E-15, 8.265869798961826831 ) ) ;
#153 = EDGE_LOOP ( 'NONE', ( #275 ) ) ;
#154 = CYLINDRICAL_SURFACE ( 'NONE', #219, 0.8749999999999993339 ) ;
#155 = EDGE_LOOP ( 'NONE', ( #239 ) ) ;
#156 = CC_DESIGN_DATE_AND_TIME_ASSIGNMENT ( #193, #226, ( #78 ) ) ;
#157 = ORIENTED_EDGE ( 'NONE', *, *, #288, .T. ) ;
#158 = AXIS2_PLACEMENT_3D ( 'NONE', #116, #162, #4 ) ;
#159 = CARTESIAN_POINT ( 'NONE',  ( 2.793185071074506684E-14, 1.028499999999998860, 8.000000000000000000 ) ) ;
#160 = CARTESIAN_POINT ( 'NONE',  ( 6.284666409917640040E-14, -2.168404344971008868E-15, 18.00000000000000000 ) ) ;
#161 = EDGE_CURVE ( 'NONE', #67, #67, #14, .T. ) ;
#162 = DIRECTION ( 'NONE',  ( -3.491481338843133355E-15, 1.224646799147353207E-16, -1.000000000000000000 ) ) ;
#163 = CC_DESIGN_PERSON_AND_ORGANIZATION_ASSIGNMENT ( #9, #99, ( #78 ) ) ;
#164 = CARTESIAN_POINT ( 'NONE',  ( 2.793185071074506684E-14, 1.028499999999998860, 8.000000000000000000 ) ) ;
#165 = AXIS2_PLACEMENT_3D ( 'NONE', #261, #262, #242 ) ;
#166 = AXIS2_PLACEMENT_3D ( 'NONE', #100, #79, #198 ) ;
#167 = DATE_AND_TIME ( #80, #241 ) ;
#168 = APPROVAL_DATE_TIME ( #167, #236 ) ;
#169 = CARTESIAN_POINT ( 'NONE',  ( 0.0000000000000000000, 0.0000000000000000000, 0.0000000000000000000 ) ) ;
#170 = APPROVAL_STATUS ( 'not_yet_approved' ) ;
#171 = FACE_OUTER_BOUND ( 'NONE', #104, .T. ) ;
#172 = LOCAL_TIME ( 7, 44, 53.00000000000000000, #5 ) ;
#173 = SECURITY_CLASSIFICATION_LEVEL ( 'unclassified' ) ;
#174 = DIRECTION ( 'NONE',  ( 0.0000000000000000000, -1.000000000000000000, 0.0000000000000000000 ) ) ;
#175 = ADVANCED_FACE ( 'NONE', ( #13, #76 ), #227, .T. ) ;
#176 = CARTESIAN_POINT ( 'NONE',  ( 2.793185071074506684E-14, -9.797174393178825657E-16, 8.000000000000000000 ) ) ;
#177 = ORIENTED_EDGE ( 'NONE', *, *, #203, .T. ) ;
#178 = APPROVAL_PERSON_ORGANIZATION ( #290, #236, #101 ) ;
#179 = DIRECTION ( 'NONE',  ( 0.0000000000000000000, 1.000000000000000000, 0.0000000000000000000 ) ) ;
#180 = ADVANCED_FACE ( 'NONE', ( #249 ), #271, .F. ) ;
#181 = ORIENTED_EDGE ( 'NONE', *, *, #203, .F. ) ;
#182 = FACE_BOUND ( 'NONE', #29, .T. ) ;
#183 = AXIS2_PLACEMENT_3D ( 'NONE', #176, #55, #225 ) ;
#184 = AXIS2_PLACEMENT_3D ( 'NONE', #246, #95, #270 ) ;
#185 = APPROVAL_STATUS ( 'not_yet_approved' ) ;
#186 = VERTEX_POINT ( 'NONE', #280 ) ;
#187 = DIRECTION ( 'NONE',  ( 0.0000000000000000000, 1.000000000000000000, 0.0000000000000000000 ) ) ;
#188 = VERTEX_POINT ( 'NONE', #164 ) ;
#189 = PRODUCT_DEFINITION_FORMATION_WITH_SPECIFIED_SOURCE ( 'ANY', '', #24, .NOT_KNOWN. ) ;
#190 = FACE_OUTER_BOUND ( 'NONE', #272, .T. ) ;
#191 = VERTEX_POINT ( 'NONE', #44 ) ;
#192 = CARTESIAN_POINT ( 'NONE',  ( 0.0000000000000000000, 0.8841624327025945362, 0.0000000000000000000 ) ) ;
#193 = DATE_AND_TIME ( #217, #110 ) ;
#194 = VERTEX_POINT ( 'NONE', #3 ) ;
#195 = DIRECTION ( 'NONE',  ( -3.491481338843133355E-15, 1.224646799147353207E-16, -1.000000000000000000 ) ) ;
#196 = ADVANCED_FACE ( 'NONE', ( #222 ), #126, .T. ) ;
#197 = DIRECTION ( 'NONE',  ( 3.491481338843133355E-15, -1.224646799147353207E-16, 1.000000000000000000 ) ) ;
#198 = DIRECTION ( 'NONE',  ( 0.0000000000000000000, 1.000000000000000000, 0.0000000000000000000 ) ) ;
#199 = EDGE_LOOP ( 'NONE', ( #82 ) ) ;
#200 = AXIS2_PLACEMENT_3D ( 'NONE', #294, #195, #247 ) ;
#201 = ORIENTED_EDGE ( 'NONE', *, *, #161, .F. ) ;
#202 = ORIENTED_EDGE ( 'NONE', *, *, #34, .F. ) ;
#203 = EDGE_CURVE ( 'NONE', #260, #260, #151, .T. ) ;
#204 = AXIS2_PLACEMENT_3D ( 'NONE', #33, #124, #291 ) ;
#205 = CC_DESIGN_APPROVAL ( #236, ( #189 ) ) ;
#206 = DIRECTION ( 'NONE',  ( 0.0000000000000000000, 0.0000000000000000000, 1.000000000000000000 ) ) ;
#207 = DATE_AND_TIME ( #22, #20 ) ;
#208 = DIRECTION ( 'NONE',  ( -3.491481338843133355E-15, 1.224646799147353207E-16, -1.000000000000000000 ) ) ;
#209 = APPROVAL_ROLE ( '' ) ;
#210 = FACE_OUTER_BOUND ( 'NONE', #233, .T. ) ;
#211 = ORIENTED_EDGE ( 'NONE', *, *, #256, .T. ) ;
#212 = CIRCLE ( 'NONE', #61, 0.8749999999999987788 ) ;
#213 = VERTEX_POINT ( 'NONE', #71 ) ;
#214 = PRODUCT_DEFINITION_SHAPE ( 'NONE', 'NONE',  #98 ) ;
#215 = APPLICATION_PROTOCOL_DEFINITION ( 'international standard', 'config_control_design', 1994, #59 ) ;
#216 = MANIFOLD_SOLID_BREP ( 'Corps-Déplacer/Copier1[2]', #267 ) ;
#217 = CALENDAR_DATE ( 2021, 30, 11 ) ;
#218 = APPROVAL_ROLE ( '' ) ;
#219 = AXIS2_PLACEMENT_3D ( 'NONE', #254, #231, #106 ) ;
#220 = LOCAL_TIME ( 7, 44, 53.00000000000000000, #223 ) ;
#221 = DIRECTION ( 'NONE',  ( 3.491481338843133355E-15, -1.224646799147353207E-16, 1.000000000000000000 ) ) ;
#222 = FACE_OUTER_BOUND ( 'NONE', #155, .T. ) ;
#223 = COORDINATED_UNIVERSAL_TIME_OFFSET ( 1, 0, .AHEAD. ) ;
#224 = ADVANCED_FACE ( 'NONE', ( #243, #11 ), #10, .T. ) ;
#225 = DIRECTION ( 'NONE',  ( 0.0000000000000000000, 1.000000000000000000, 0.0000000000000000000 ) ) ;
#226 = DATE_TIME_ROLE ( 'classification_date' ) ;
#227 = CYLINDRICAL_SURFACE ( 'NONE', #36, 1.028499999999999526 ) ;
#228 = EDGE_LOOP ( 'NONE', ( #129 ) ) ;
#229 = DIRECTION ( 'NONE',  ( -3.491481338843133355E-15, 1.224646799147353207E-16, -1.000000000000000000 ) ) ;
#230 = EDGE_LOOP ( 'NONE', ( #26 ) ) ;
#231 = DIRECTION ( 'NONE',  ( -3.491481338843133355E-15, 1.224646799147353207E-16, -1.000000000000000000 ) ) ;
#232 = CC_DESIGN_APPROVAL ( #108, ( #78 ) ) ;
#233 = EDGE_LOOP ( 'NONE', ( #253 ) ) ;
#234 = CARTESIAN_POINT ( 'NONE',  ( 8.728703347107829444E-16, -3.061616997868381785E-17, 0.2499999999999998890 ) ) ;
#235 = COORDINATED_UNIVERSAL_TIME_OFFSET ( 1, 0, .AHEAD. ) ;
#236 = APPROVAL ( #143, 'UNSPECIFIED' ) ;
#237 = ORIENTED_EDGE ( 'NONE', *, *, #43, .T. ) ;
#238 = PERSON_AND_ORGANIZATION ( #248, #102 ) ;
#239 = ORIENTED_EDGE ( 'NONE', *, *, #256, .F. ) ;
#240 = AXIS2_PLACEMENT_3D ( 'NONE', #284, #48, #302 ) ;
#241 = LOCAL_TIME ( 7, 44, 53.00000000000000000, #119 ) ;
#242 = DIRECTION ( 'NONE',  ( -4.275831445896958607E-31, -1.000000000000000000, -1.224646799147353207E-16 ) ) ;
#243 = FACE_OUTER_BOUND ( 'NONE', #230, .T. ) ;
#244 = PERSON_AND_ORGANIZATION ( #248, #102 ) ;
#245 = DIRECTION ( 'NONE',  ( 0.0000000000000000000, 1.000000000000000000, 0.0000000000000000000 ) ) ;
#246 = CARTESIAN_POINT ( 'NONE',  ( 6.405924284287275164E-14, -2.246895775456749140E-15, 18.34729635533384595 ) ) ;
#247 = DIRECTION ( 'NONE',  ( 4.275831445896958607E-31, 1.000000000000000000, 1.224646799147353207E-16 ) ) ;
#248 = PERSON ( 'UNSPECIFIED', 'UNSPECIFIED', 'UNSPECIFIED', ('UNSPECIFIED'), ('UNSPECIFIED'), ('UNSPECIFIED') ) ;
#249 = FACE_OUTER_BOUND ( 'NONE', #301, .T. ) ;
#250 = AXIS2_PLACEMENT_3D ( 'NONE', #160, #285, #135 ) ;
#251 = AXIS2_PLACEMENT_3D ( 'NONE', #268, #120, #145 ) ;
#252 = DESIGN_CONTEXT ( 'detailed design', #59, 'design' ) ;
#253 = ORIENTED_EDGE ( 'NONE', *, *, #27, .T. ) ;
#254 = CARTESIAN_POINT ( 'NONE',  ( 0.0000000000000000000, 0.0000000000000000000, 0.0000000000000000000 ) ) ;
#255 = CIRCLE ( 'NONE', #28, 0.8749999999999998890 ) ;
#256 = EDGE_CURVE ( 'NONE', #188, #188, #131, .T. ) ;
#257 = APPROVAL_DATE_TIME ( #91, #39 ) ;
#258 = AXIS2_PLACEMENT_3D ( 'NONE', #234, #197, #53 ) ;
#259 =( GEOMETRIC_REPRESENTATION_CONTEXT ( 3 ) GLOBAL_UNCERTAINTY_ASSIGNED_CONTEXT ( ( #139 ) ) GLOBAL_UNIT_ASSIGNED_CONTEXT ( ( #45, #66, #117 ) ) REPRESENTATION_CONTEXT ( 'NONE', 'WORKASPACE' ) );
#260 = VERTEX_POINT ( 'NONE', #286 ) ;
#261 = CARTESIAN_POINT ( 'NONE',  ( -1.890264766515253566E-31, 6.630156289539113213E-33, -5.413933465677847729E-17 ) ) ;
#262 = DIRECTION ( 'NONE',  ( 3.491481338843133355E-15, -1.224646799147353207E-16, 1.000000000000000000 ) ) ;
#263 = ADVANCED_FACE ( 'NONE', ( #32, #122 ), #282, .T. ) ;
#264 = PERSON_AND_ORGANIZATION ( #248, #102 ) ;
#265 = APPROVAL_DATE_TIME ( #74, #108 ) ;
#266 = DIRECTION ( 'NONE',  ( 4.275831445896958607E-31, 1.000000000000000000, 1.224646799147352961E-16 ) ) ;
#267 = CLOSED_SHELL ( 'NONE', ( #92, #118, #175, #196 ) ) ;
#268 = CARTESIAN_POINT ( 'NONE',  ( 2.886013015238225878E-14, -1.012277099146737755E-15, 8.265869798961826831 ) ) ;
#269 = CALENDAR_DATE ( 2021, 30, 11 ) ;
#270 = DIRECTION ( 'NONE',  ( 0.0000000000000000000, 1.000000000000000000, 0.0000000000000000000 ) ) ;
#271 = PLANE ( 'NONE',  #72 ) ;
#272 = EDGE_LOOP ( 'NONE', ( #127 ) ) ;
#273 = FACE_OUTER_BOUND ( 'NONE', #70, .T. ) ;
#274 = ADVANCED_FACE ( 'NONE', ( #171, #293 ), #93, .T. ) ;
#275 = ORIENTED_EDGE ( 'NONE', *, *, #86, .F. ) ;
#276 = CC_DESIGN_PERSON_AND_ORGANIZATION_ASSIGNMENT ( #264, #94, ( #189 ) ) ;
#277 = FACE_OUTER_BOUND ( 'NONE', #38, .T. ) ;
#278 = APPROVAL_PERSON_ORGANIZATION ( #244, #108, #218 ) ;
#279 = CALENDAR_DATE ( 2021, 30, 11 ) ;
#280 = CARTESIAN_POINT ( 'NONE',  ( 6.284666409917640040E-14, 0.8749999999999977796, 18.00000000000000000 ) ) ;
#281 = CARTESIAN_POINT ( 'NONE',  ( 7.583332832162122659E-14, -2.659875101281078396E-15, 21.71952846431303286 ) ) ;
#282 = CONICAL_SURFACE ( 'NONE', #42, 1.499999999999996669, 0.1745329251994258979 ) ;
#283 = MECHANICAL_CONTEXT ( 'NONE', #64, 'mechanical' ) ;
#284 = CARTESIAN_POINT ( 'NONE',  ( 0.0000000000000000000, 0.0000000000000000000, 0.0000000000000000000 ) ) ;
#285 = DIRECTION ( 'NONE',  ( -3.491481338843133355E-15, 1.224646799147353207E-16, -1.000000000000000000 ) ) ;
#286 = CARTESIAN_POINT ( 'NONE',  ( 8.728703347107833388E-16, 1.028499999999998860, 0.2500000000000000000 ) ) ;
#287 = PLANE ( 'NONE',  #165 ) ;
#288 = EDGE_CURVE ( 'NONE', #213, #213, #68, .T. ) ;
#289 = AXIS2_PLACEMENT_3D ( 'NONE', #12, #221, #30 ) ;
#290 = PERSON_AND_ORGANIZATION ( #248, #102 ) ;
#291 = DIRECTION ( 'NONE',  ( 4.275831445896958607E-31, 1.000000000000000000, 1.224646799147353207E-16 ) ) ;
#292 = CC_DESIGN_PERSON_AND_ORGANIZATION_ASSIGNMENT ( #238, #134, ( #98 ) ) ;
#293 = FACE_BOUND ( 'NONE', #150, .T. ) ;
#294 = CARTESIAN_POINT ( 'NONE',  ( -3.780529533030507133E-31, 1.326031257907822643E-32, -1.082786693135569546E-16 ) ) ;
#295 = COORDINATED_UNIVERSAL_TIME_OFFSET ( 1, 0, .AHEAD. ) ;
#296 = DIRECTION ( 'NONE',  ( -4.275831445896958607E-31, -1.000000000000000000, -1.224646799147353207E-16 ) ) ;
#297 = EDGE_LOOP ( 'NONE', ( #63 ) ) ;
#298 = ORIENTED_EDGE ( 'NONE', *, *, #34, .T. ) ;
#299 = TOROIDAL_SURFACE ( 'NONE', #250, 2.875000000000000000, 2.000000000000000000 ) ;
#300 = CARTESIAN_POINT ( 'NONE',  ( 6.284666409917640040E-14, -2.204364238465235428E-15, 18.00000000000000000 ) ) ;
#301 = EDGE_LOOP ( 'NONE', ( #7 ) ) ;
#302 = DIRECTION ( 'NONE',  ( 4.275831445896958607E-31, 1.000000000000000000, 1.224646799147353454E-16 ) ) ;
#303 = EDGE_LOOP ( 'NONE', ( #211 ) ) ;
ENDSEC;
END-ISO-10303-21;
