ISO-10303-21;
HEADER;
FILE_DESCRIPTION (( 'STEP AP203' ),
    '1' );
FILE_NAME ('200120.step',
    '2021-11-30T06:44:52',
    ( '' ),
    ( '' ),
    'SwSTEP 2.0',
    'SolidWorks 2019',
    '' );
FILE_SCHEMA (( 'CONFIG_CONTROL_DESIGN' ));
ENDSEC;

DATA;
#1 = ORIENTED_EDGE ( 'NONE', *, *, #284, .F. ) ;
#2 = ORIENTED_EDGE ( 'NONE', *, *, #199, .F. ) ;
#3 = APPROVAL_STATUS ( 'not_yet_approved' ) ;
#4 = DIRECTION ( 'NONE',  ( 0.0000000000000000000, 1.000000000000000000, 0.0000000000000000000 ) ) ;
#5 = APPROVAL_DATE_TIME ( #181, #148 ) ;
#6 = MANIFOLD_SOLID_BREP ( 'Corps-Déplacer/Copier1[2]', #35 ) ;
#7 = DIRECTION ( 'NONE',  ( -3.491481338843133355E-15, 1.224646799147353207E-16, -1.000000000000000000 ) ) ;
#8 = CIRCLE ( 'NONE', #239, 1.500000000000001554 ) ;
#9 = PRODUCT_DEFINITION ( 'UNKNOWN', '', #40, #67 ) ;
#10 = ADVANCED_FACE ( 'NONE', ( #203 ), #270, .F. ) ;
#11 = VERTEX_POINT ( 'NONE', #12 ) ;
#12 = CARTESIAN_POINT ( 'NONE',  ( 1.735266225405037467E-13, 1.499999999999995559, 49.70000000000000284 ) ) ;
#13 = AXIS2_PLACEMENT_3D ( 'NONE', #281, #161, #72 ) ;
#14 = DIRECTION ( 'NONE',  ( 0.0000000000000000000, 1.000000000000000000, 0.0000000000000000000 ) ) ;
#15 = DIRECTION ( 'NONE',  ( -4.275831445896958607E-31, -1.000000000000000000, -1.224646799147353207E-16 ) ) ;
#16 = DIRECTION ( 'NONE',  ( -3.491481338843133355E-15, 1.224646799147353207E-16, -1.000000000000000000 ) ) ;
#17 = EDGE_LOOP ( 'NONE', ( #165 ) ) ;
#18 = CC_DESIGN_PERSON_AND_ORGANIZATION_ASSIGNMENT ( #145, #124, ( #40 ) ) ;
#19 = AXIS2_PLACEMENT_3D ( 'NONE', #53, #99, #285 ) ;
#20 = CARTESIAN_POINT ( 'NONE',  ( 8.728703347107831416E-16, -3.061616997868382402E-17, 0.2499999999999999445 ) ) ;
#21 = ADVANCED_BREP_SHAPE_REPRESENTATION ( '200120', ( #105, #6, #218 ), #103 ) ;
#22 = DIRECTION ( 'NONE',  ( -3.571497347032429924E-31, -1.000000000000000000, -1.005287132578122903E-16 ) ) ;
#23 = ORIENTED_EDGE ( 'NONE', *, *, #62, .T. ) ;
#24 = PERSON_AND_ORGANIZATION ( #269, #112 ) ;
#25 = ORIENTED_EDGE ( 'NONE', *, *, #284, .T. ) ;
#26 = MECHANICAL_CONTEXT ( 'NONE', #127, 'mechanical' ) ;
#27 = CIRCLE ( 'NONE', #36, 1.078500000000000014 ) ;
#28 = PRODUCT_DEFINITION_SHAPE ( 'NONE', 'NONE',  #9 ) ;
#29 = AXIS2_PLACEMENT_3D ( 'NONE', #246, #223, #200 ) ;
#30 = CARTESIAN_POINT ( 'NONE',  ( 0.0000000000000000000, 0.0000000000000000000, 0.0000000000000000000 ) ) ;
#31 = PERSON_AND_ORGANIZATION ( #269, #112 ) ;
#32 = CYLINDRICAL_SURFACE ( 'NONE', #190, 0.9249999999999993783 ) ;
#33 = PERSON_AND_ORGANIZATION_ROLE ( 'creator' ) ;
#34 = ADVANCED_FACE ( 'NONE', ( #242 ), #39, .F. ) ;
#35 = CLOSED_SHELL ( 'NONE', ( #136, #170, #158, #118 ) ) ;
#36 = AXIS2_PLACEMENT_3D ( 'NONE', #131, #133, #4 ) ;
#37 = VERTEX_POINT ( 'NONE', #128 ) ;
#38 = VERTEX_POINT ( 'NONE', #292 ) ;
#39 = PLANE ( 'NONE',  #56 ) ;
#40 = PRODUCT_DEFINITION_FORMATION_WITH_SPECIFIED_SOURCE ( 'ANY', '', #75, .NOT_KNOWN. ) ;
#41 = CARTESIAN_POINT ( 'NONE',  ( 7.484326958959538328E-14, -2.625148515643789720E-15, 21.43596437333213345 ) ) ;
#42 = DIRECTION ( 'NONE',  ( -3.491481338843133355E-15, 1.224646799147353207E-16, -1.000000000000000000 ) ) ;
#43 = CARTESIAN_POINT ( 'NONE',  ( 6.284666409917640040E-14, -2.168404344971008868E-15, 18.00000000000000000 ) ) ;
#44 = DIRECTION ( 'NONE',  ( 4.275831445896957731E-31, 1.000000000000000000, 1.224646799147352961E-16 ) ) ;
#45 = DIRECTION ( 'NONE',  ( 0.0000000000000000000, 1.000000000000000000, 0.0000000000000000000 ) ) ;
#46 = ORIENTED_EDGE ( 'NONE', *, *, #256, .F. ) ;
#47 = APPROVAL_DATE_TIME ( #54, #300 ) ;
#48 = EDGE_LOOP ( 'NONE', ( #278 ) ) ;
#49 = APPROVAL_DATE_TIME ( #166, #151 ) ;
#50 = DIRECTION ( 'NONE',  ( 3.491481338843133355E-15, -1.224646799147353207E-16, 1.000000000000000000 ) ) ;
#51 = CALENDAR_DATE ( 2021, 30, 11 ) ;
#52 = CC_DESIGN_APPROVAL ( #148, ( #9 ) ) ;
#53 = CARTESIAN_POINT ( 'NONE',  ( 2.886013015238225878E-14, -1.012277099146737755E-15, 8.265869798961826831 ) ) ;
#54 = DATE_AND_TIME ( #51, #81 ) ;
#55 = EDGE_CURVE ( 'NONE', #294, #294, #267, .T. ) ;
#56 = AXIS2_PLACEMENT_3D ( 'NONE', #295, #272, #15 ) ;
#57 = AXIS2_PLACEMENT_3D ( 'NONE', #115, #16, #296 ) ;
#58 = VERTEX_POINT ( 'NONE', #197 ) ;
#59 =( LENGTH_UNIT ( ) NAMED_UNIT ( * ) SI_UNIT ( .MILLI., .METRE. ) );
#60 = CC_DESIGN_PERSON_AND_ORGANIZATION_ASSIGNMENT ( #212, #147, ( #75 ) ) ;
#61 = CARTESIAN_POINT ( 'NONE',  ( 1.745740669421566678E-13, -6.123233995736766085E-15, 50.00000000000000000 ) ) ;
#62 = EDGE_CURVE ( 'NONE', #196, #196, #27, .T. ) ;
#63 = CYLINDRICAL_SURFACE ( 'NONE', #299, 1.499999999999999112 ) ;
#64 = ORIENTED_EDGE ( 'NONE', *, *, #192, .F. ) ;
#65 = PRODUCT_RELATED_PRODUCT_CATEGORY ( 'detail', '', ( #75 ) ) ;
#66 = FACE_OUTER_BOUND ( 'NONE', #230, .T. ) ;
#67 = DESIGN_CONTEXT ( 'detailed design', #248, 'design' ) ;
#68 = CARTESIAN_POINT ( 'NONE',  ( 7.484326958959538328E-14, -2.625148515643789720E-15, 21.43596437333213345 ) ) ;
#69 = AXIS2_PLACEMENT_3D ( 'NONE', #20, #301, #22 ) ;
#70 = ORIENTED_EDGE ( 'NONE', *, *, #220, .T. ) ;
#71 = PERSON_AND_ORGANIZATION_ROLE ( 'classification_officer' ) ;
#72 = DIRECTION ( 'NONE',  ( 0.0000000000000000000, 1.000000000000000000, 0.0000000000000000000 ) ) ;
#73 = EDGE_LOOP ( 'NONE', ( #70 ) ) ;
#74 = SECURITY_CLASSIFICATION_LEVEL ( 'unclassified' ) ;
#75 = PRODUCT ( '200120', '200120', '', ( #26 ) ) ;
#76 = FACE_OUTER_BOUND ( 'NONE', #227, .T. ) ;
#77 = DATE_TIME_ROLE ( 'creation_date' ) ;
#78 = CARTESIAN_POINT ( 'NONE',  ( 1.745740669421566678E-13, -6.123233995736766085E-15, 50.00000000000000000 ) ) ;
#79 = AXIS2_PLACEMENT_3D ( 'NONE', #78, #7, #213 ) ;
#80 = APPLICATION_PROTOCOL_DEFINITION ( 'international standard', 'config_control_design', 1994, #127 ) ;
#81 = LOCAL_TIME ( 7, 44, 52.00000000000000000, #235 ) ;
#82 = CARTESIAN_POINT ( 'NONE',  ( 8.728703347107835360E-16, 1.078499999999998904, 0.2500000000000000555 ) ) ;
#83 = ADVANCED_FACE ( 'NONE', ( #76, #188 ), #204, .T. ) ;
#84 = CARTESIAN_POINT ( 'NONE',  ( 1.745740669421566678E-13, 8.998558695971067645E-33, 50.00000000000000000 ) ) ;
#85 = DIRECTION ( 'NONE',  ( 0.0000000000000000000, -1.000000000000000000, 0.0000000000000000000 ) ) ;
#86 = DIRECTION ( 'NONE',  ( 4.275831445896958607E-31, 1.000000000000000000, 1.224646799147353207E-16 ) ) ;
#87 = FACE_OUTER_BOUND ( 'NONE', #176, .T. ) ;
#88 = CIRCLE ( 'NONE', #261, 0.9250000000000000444 ) ;
#89 = CARTESIAN_POINT ( 'NONE',  ( 1.735266225405037467E-13, -6.086494591762345225E-15, 49.70000000000000284 ) ) ;
#90 = EDGE_LOOP ( 'NONE', ( #46 ) ) ;
#91 = CC_DESIGN_PERSON_AND_ORGANIZATION_ASSIGNMENT ( #187, #33, ( #9 ) ) ;
#92 = FACE_OUTER_BOUND ( 'NONE', #138, .T. ) ;
#93 = EDGE_LOOP ( 'NONE', ( #180 ) ) ;
#94 = TOROIDAL_SURFACE ( 'NONE', #126, 2.925000000000000266, 2.000000000000000888 ) ;
#95 = APPROVAL_ROLE ( '' ) ;
#96 = ORIENTED_EDGE ( 'NONE', *, *, #220, .F. ) ;
#97 = DIRECTION ( 'NONE',  ( 4.275831445896958607E-31, 1.000000000000000000, 1.224646799147353207E-16 ) ) ;
#98 = PERSON_AND_ORGANIZATION ( #269, #112 ) ;
#99 = DIRECTION ( 'NONE',  ( -3.491481338843133355E-15, 1.224646799147353207E-16, -1.000000000000000000 ) ) ;
#100 = AXIS2_PLACEMENT_3D ( 'NONE', #169, #262, #237 ) ;
#101 = PERSON_AND_ORGANIZATION_ROLE ( 'design_supplier' ) ;
#102 = CIRCLE ( 'NONE', #160, 0.9341624327025944696 ) ;
#103 =( GEOMETRIC_REPRESENTATION_CONTEXT ( 3 ) GLOBAL_UNCERTAINTY_ASSIGNED_CONTEXT ( ( #193 ) ) GLOBAL_UNIT_ASSIGNED_CONTEXT ( ( #59, #268, #221 ) ) REPRESENTATION_CONTEXT ( 'NONE', 'WORKASPACE' ) );
#104 = VERTEX_POINT ( 'NONE', #240 ) ;
#105 = MANIFOLD_SOLID_BREP ( 'Corps-Déplacer/Copier1[1]', #260 ) ;
#106 = CC_DESIGN_DATE_AND_TIME_ASSIGNMENT ( #286, #77, ( #9 ) ) ;
#107 = VERTEX_POINT ( 'NONE', #129 ) ;
#108 = VERTEX_POINT ( 'NONE', #82 ) ;
#109 = DIRECTION ( 'NONE',  ( -3.491481338843133355E-15, 1.224646799147353207E-16, -1.000000000000000000 ) ) ;
#110 = DIRECTION ( 'NONE',  ( -3.491481338843133355E-15, 1.224646799147353207E-16, -1.000000000000000000 ) ) ;
#111 = EDGE_LOOP ( 'NONE', ( #297 ) ) ;
#112 = ORGANIZATION ( 'UNSPECIFIED', 'UNSPECIFIED', '' ) ;
#113 = FACE_OUTER_BOUND ( 'NONE', #162, .T. ) ;
#114 = ADVANCED_FACE ( 'NONE', ( #215, #257 ), #152, .T. ) ;
#115 = CARTESIAN_POINT ( 'NONE',  ( 2.793185071074506684E-14, -9.797174393178825657E-16, 8.000000000000000000 ) ) ;
#116 = EDGE_LOOP ( 'NONE', ( #245 ) ) ;
#117 = DATE_TIME_ROLE ( 'classification_date' ) ;
#118 = ADVANCED_FACE ( 'NONE', ( #191 ), #186, .T. ) ;
#119 = EDGE_LOOP ( 'NONE', ( #232 ) ) ;
#120 = SECURITY_CLASSIFICATION ( '', '', #74 ) ;
#121 = CC_DESIGN_DATE_AND_TIME_ASSIGNMENT ( #231, #117, ( #120 ) ) ;
#122 = DIRECTION ( 'NONE',  ( -4.275831445896958607E-31, -1.000000000000000000, -1.224646799147353207E-16 ) ) ;
#123 = DIRECTION ( 'NONE',  ( -3.491481338843133355E-15, 1.224646799147353207E-16, -1.000000000000000000 ) ) ;
#124 = PERSON_AND_ORGANIZATION_ROLE ( 'creator' ) ;
#125 = APPROVAL_PERSON_ORGANIZATION ( #24, #151, #95 ) ;
#126 = AXIS2_PLACEMENT_3D ( 'NONE', #43, #109, #134 ) ;
#127 = APPLICATION_CONTEXT ( 'configuration controlled 3d designs of mechanical parts and assemblies' ) ;
#128 = CARTESIAN_POINT ( 'NONE',  ( 6.284666409917640040E-14, 0.9249999999999978240, 18.00000000000000000 ) ) ;
#129 = CARTESIAN_POINT ( 'NONE',  ( 7.484326958959538328E-14, 1.499999999999994005, 21.43596437333213345 ) ) ;
#130 = DIRECTION ( 'NONE',  ( -3.491481338843133355E-15, 1.224646799147353207E-16, -1.000000000000000000 ) ) ;
#131 = CARTESIAN_POINT ( 'NONE',  ( 2.793185071074506684E-14, -9.797174393178825657E-16, 8.000000000000000000 ) ) ;
#132 = FACE_OUTER_BOUND ( 'NONE', #156, .T. ) ;
#133 = DIRECTION ( 'NONE',  ( -3.491481338843133355E-15, 1.224646799147353207E-16, -1.000000000000000000 ) ) ;
#134 = DIRECTION ( 'NONE',  ( 4.275831445896958607E-31, 1.000000000000000000, 1.224646799147353207E-16 ) ) ;
#135 = CARTESIAN_POINT ( 'NONE',  ( 0.0000000000000000000, 0.0000000000000000000, 0.0000000000000000000 ) ) ;
#136 = ADVANCED_FACE ( 'NONE', ( #287 ), #146, .F. ) ;
#137 = DIRECTION ( 'NONE',  ( 0.0000000000000000000, 1.000000000000000000, 0.0000000000000000000 ) ) ;
#138 = EDGE_LOOP ( 'NONE', ( #1 ) ) ;
#139 = CARTESIAN_POINT ( 'NONE',  ( 0.0000000000000000000, 0.0000000000000000000, 0.0000000000000000000 ) ) ;
#140 = ADVANCED_FACE ( 'NONE', ( #144, #234 ), #32, .T. ) ;
#141 = CC_DESIGN_PERSON_AND_ORGANIZATION_ASSIGNMENT ( #302, #71, ( #120 ) ) ;
#142 = ORIENTED_EDGE ( 'NONE', *, *, #192, .T. ) ;
#143 = LOCAL_TIME ( 7, 44, 52.00000000000000000, #185 ) ;
#144 = FACE_OUTER_BOUND ( 'NONE', #90, .T. ) ;
#145 = PERSON_AND_ORGANIZATION ( #269, #112 ) ;
#146 = PLANE ( 'NONE',  #100 ) ;
#147 = PERSON_AND_ORGANIZATION_ROLE ( 'design_owner' ) ;
#148 = APPROVAL ( #3, 'UNSPECIFIED' ) ;
#149 = CONICAL_SURFACE ( 'NONE', #69, 1.078499999999998904, 0.5235987755982928205 ) ;
#150 = CONICAL_SURFACE ( 'NONE', #222, 1.499999999999996669, 0.1745329251994263975 ) ;
#151 = APPROVAL ( #208, 'UNSPECIFIED' ) ;
#152 = CONICAL_SURFACE ( 'NONE', #19, 0.9249999999999988232, 0.5235987755982944858 ) ;
#153 = CARTESIAN_POINT ( 'NONE',  ( 2.793185071074506684E-14, 1.078499999999998904, 8.000000000000000000 ) ) ;
#154 = DIRECTION ( 'NONE',  ( 0.0000000000000000000, 1.000000000000000000, 0.0000000000000000000 ) ) ;
#155 = FACE_OUTER_BOUND ( 'NONE', #211, .T. ) ;
#156 = EDGE_LOOP ( 'NONE', ( #225 ) ) ;
#157 = FACE_OUTER_BOUND ( 'NONE', #93, .T. ) ;
#158 = ADVANCED_FACE ( 'NONE', ( #92, #113 ), #179, .T. ) ;
#159 = DIRECTION ( 'NONE',  ( 0.0000000000000000000, 1.000000000000000000, 0.0000000000000000000 ) ) ;
#160 = AXIS2_PLACEMENT_3D ( 'NONE', #206, #277, #44 ) ;
#161 = DIRECTION ( 'NONE',  ( -3.491481338843133355E-15, 1.224646799147353207E-16, -1.000000000000000000 ) ) ;
#162 = EDGE_LOOP ( 'NONE', ( #23 ) ) ;
#163 = COORDINATED_UNIVERSAL_TIME_OFFSET ( 1, 0, .AHEAD. ) ;
#164 = DIRECTION ( 'NONE',  ( -3.491481338843133355E-15, 1.224646799147353207E-16, -1.000000000000000000 ) ) ;
#165 = ORIENTED_EDGE ( 'NONE', *, *, #194, .T. ) ;
#166 = DATE_AND_TIME ( #283, #143 ) ;
#167 = CARTESIAN_POINT ( 'NONE',  ( 2.793185071074506684E-14, 8.087454628004051741E-33, 8.000000000000000000 ) ) ;
#168 = CC_DESIGN_SECURITY_CLASSIFICATION ( #120, ( #40 ) ) ;
#169 = CARTESIAN_POINT ( 'NONE',  ( -2.943528465854258144E-31, 1.032450803561202591E-32, -8.430600596678445205E-17 ) ) ;
#170 = ADVANCED_FACE ( 'NONE', ( #205, #303 ), #149, .T. ) ;
#171 = LOCAL_TIME ( 7, 44, 52.00000000000000000, #238 ) ;
#172 = CARTESIAN_POINT ( 'NONE',  ( 6.405924284287275164E-14, 0.9553844939755780086, 18.34729635533384595 ) ) ;
#173 = AXIS2_PLACEMENT_3D ( 'NONE', #84, #42, #86 ) ;
#174 = CIRCLE ( 'NONE', #219, 1.499999999999996669 ) ;
#175 = CARTESIAN_POINT ( 'NONE',  ( 1.745740669421566678E-13, 1.199999999999995515, 50.00000000000000000 ) ) ;
#176 = EDGE_LOOP ( 'NONE', ( #2 ) ) ;
#177 = APPROVAL_PERSON_ORGANIZATION ( #98, #148, #214 ) ;
#178 = CARTESIAN_POINT ( 'NONE',  ( 0.0000000000000000000, 0.0000000000000000000, 0.0000000000000000000 ) ) ;
#179 = CYLINDRICAL_SURFACE ( 'NONE', #280, 1.078499999999999570 ) ;
#180 = ORIENTED_EDGE ( 'NONE', *, *, #216, .T. ) ;
#181 = DATE_AND_TIME ( #258, #273 ) ;
#182 = AXIS2_PLACEMENT_3D ( 'NONE', #167, #50, #122 ) ;
#183 = DIRECTION ( 'NONE',  ( -3.491481338843133355E-15, 1.224646799147353207E-16, -1.000000000000000000 ) ) ;
#184 = EDGE_LOOP ( 'NONE', ( #252 ) ) ;
#185 = COORDINATED_UNIVERSAL_TIME_OFFSET ( 1, 0, .AHEAD. ) ;
#186 = PLANE ( 'NONE',  #182 ) ;
#187 = PERSON_AND_ORGANIZATION ( #269, #112 ) ;
#188 = FACE_BOUND ( 'NONE', #184, .T. ) ;
#189 = DIRECTION ( 'NONE',  ( 1.000000000000000000, 0.0000000000000000000, 0.0000000000000000000 ) ) ;
#190 = AXIS2_PLACEMENT_3D ( 'NONE', #30, #123, #97 ) ;
#191 = FACE_OUTER_BOUND ( 'NONE', #209, .T. ) ;
#192 = EDGE_CURVE ( 'NONE', #11, #11, #8, .T. ) ;
#193 = UNCERTAINTY_MEASURE_WITH_UNIT (LENGTH_MEASURE( 1.000000000000000082E-05 ), #59, 'distance_accuracy_value', 'NONE');
#194 = EDGE_CURVE ( 'NONE', #104, #104, #102, .T. ) ;
#195 = CIRCLE ( 'NONE', #13, 0.9553844939755802290 ) ;
#196 = VERTEX_POINT ( 'NONE', #153 ) ;
#197 = CARTESIAN_POINT ( 'NONE',  ( 2.793185071074506684E-14, 1.078499999999998904, 8.000000000000000000 ) ) ;
#198 = CIRCLE ( 'NONE', #29, 1.078499999999998904 ) ;
#199 = EDGE_CURVE ( 'NONE', #107, #107, #174, .T. ) ;
#200 = DIRECTION ( 'NONE',  ( 3.571497347032429924E-31, 1.000000000000000000, 1.005287132578122903E-16 ) ) ;
#201 = ORIENTED_EDGE ( 'NONE', *, *, #62, .F. ) ;
#202 = DIRECTION ( 'NONE',  ( -3.491481338843133355E-15, 1.224646799147353207E-16, -1.000000000000000000 ) ) ;
#203 = FACE_OUTER_BOUND ( 'NONE', #48, .T. ) ;
#204 = CONICAL_SURFACE ( 'NONE', #79, 1.200000000000001732, 0.7853981633974453924 ) ;
#205 = FACE_BOUND ( 'NONE', #119, .T. ) ;
#206 = CARTESIAN_POINT ( 'NONE',  ( -5.887056931708516288E-31, 2.064901607122405182E-32, -1.686120119335689041E-16 ) ) ;
#207 = EDGE_LOOP ( 'NONE', ( #259 ) ) ;
#208 = APPROVAL_STATUS ( 'not_yet_approved' ) ;
#209 = EDGE_LOOP ( 'NONE', ( #201 ) ) ;
#210 = APPROVAL_PERSON_ORGANIZATION ( #31, #300, #290 ) ;
#211 = EDGE_LOOP ( 'NONE', ( #142 ) ) ;
#212 = PERSON_AND_ORGANIZATION ( #269, #112 ) ;
#213 = DIRECTION ( 'NONE',  ( 0.0000000000000000000, 1.000000000000000000, 0.0000000000000000000 ) ) ;
#214 = APPROVAL_ROLE ( '' ) ;
#215 = FACE_OUTER_BOUND ( 'NONE', #111, .T. ) ;
#216 = EDGE_CURVE ( 'NONE', #266, #266, #195, .T. ) ;
#217 = PERSON_AND_ORGANIZATION ( #269, #112 ) ;
#218 = AXIS2_PLACEMENT_3D ( 'NONE', #139, #233, #189 ) ;
#219 = AXIS2_PLACEMENT_3D ( 'NONE', #68, #228, #159 ) ;
#220 = EDGE_CURVE ( 'NONE', #37, #37, #88, .T. ) ;
#221 =( NAMED_UNIT ( * ) SI_UNIT ( $, .STERADIAN. ) SOLID_ANGLE_UNIT ( ) );
#222 = AXIS2_PLACEMENT_3D ( 'NONE', #41, #271, #85 ) ;
#223 = DIRECTION ( 'NONE',  ( -3.491481338843133355E-15, 1.224646799147353207E-16, -1.000000000000000000 ) ) ;
#224 = EDGE_CURVE ( 'NONE', #58, #58, #243, .T. ) ;
#225 = ORIENTED_EDGE ( 'NONE', *, *, #199, .T. ) ;
#226 = CARTESIAN_POINT ( 'NONE',  ( 2.886013015238225878E-14, -1.012277099146737755E-15, 8.265869798961826831 ) ) ;
#227 = EDGE_LOOP ( 'NONE', ( #64 ) ) ;
#228 = DIRECTION ( 'NONE',  ( -3.491481338843133355E-15, 1.224646799147353207E-16, -1.000000000000000000 ) ) ;
#229 = CARTESIAN_POINT ( 'NONE',  ( 6.284666409917640040E-14, -2.204364238465235428E-15, 18.00000000000000000 ) ) ;
#230 = EDGE_LOOP ( 'NONE', ( #96 ) ) ;
#231 = DATE_AND_TIME ( #255, #291 ) ;
#232 = ORIENTED_EDGE ( 'NONE', *, *, #194, .F. ) ;
#233 = DIRECTION ( 'NONE',  ( 0.0000000000000000000, 0.0000000000000000000, 1.000000000000000000 ) ) ;
#234 = FACE_OUTER_BOUND ( 'NONE', #73, .T. ) ;
#235 = COORDINATED_UNIVERSAL_TIME_OFFSET ( 1, 0, .AHEAD. ) ;
#236 = SHAPE_DEFINITION_REPRESENTATION ( #28, #21 ) ;
#237 = DIRECTION ( 'NONE',  ( -4.275831445896958607E-31, -1.000000000000000000, -1.224646799147353207E-16 ) ) ;
#238 = COORDINATED_UNIVERSAL_TIME_OFFSET ( 1, 0, .AHEAD. ) ;
#239 = AXIS2_PLACEMENT_3D ( 'NONE', #89, #183, #137 ) ;
#240 = CARTESIAN_POINT ( 'NONE',  ( -1.892735826383161356E-31, 0.9341624327025944696, -5.421010862427522170E-17 ) ) ;
#241 = ADVANCED_FACE ( 'NONE', ( #87, #155 ), #63, .T. ) ;
#242 = FACE_OUTER_BOUND ( 'NONE', #207, .T. ) ;
#243 = CIRCLE ( 'NONE', #57, 1.078500000000000014 ) ;
#244 = FACE_BOUND ( 'NONE', #293, .T. ) ;
#245 = ORIENTED_EDGE ( 'NONE', *, *, #256, .T. ) ;
#246 = CARTESIAN_POINT ( 'NONE',  ( 8.728703347107831416E-16, -3.061616997868382402E-17, 0.2499999999999999445 ) ) ;
#247 = DIRECTION ( 'NONE',  ( 4.275831445896958607E-31, 1.000000000000000000, 1.224646799147353207E-16 ) ) ;
#248 = APPLICATION_CONTEXT ( 'configuration controlled 3d designs of mechanical parts and assemblies' ) ;
#249 = CC_DESIGN_APPROVAL ( #300, ( #40 ) ) ;
#250 = DIRECTION ( 'NONE',  ( -3.491481338843133355E-15, 1.224646799147353207E-16, -1.000000000000000000 ) ) ;
#251 = ADVANCED_FACE ( 'NONE', ( #244, #132 ), #150, .T. ) ;
#252 = ORIENTED_EDGE ( 'NONE', *, *, #55, .T. ) ;
#253 = APPROVAL_STATUS ( 'not_yet_approved' ) ;
#254 = EDGE_LOOP ( 'NONE', ( #25 ) ) ;
#255 = CALENDAR_DATE ( 2021, 30, 11 ) ;
#256 = EDGE_CURVE ( 'NONE', #38, #38, #274, .T. ) ;
#257 = FACE_BOUND ( 'NONE', #116, .T. ) ;
#258 = CALENDAR_DATE ( 2021, 30, 11 ) ;
#259 = ORIENTED_EDGE ( 'NONE', *, *, #224, .T. ) ;
#260 = CLOSED_SHELL ( 'NONE', ( #34, #114, #140, #276, #251, #241, #83, #10 ) ) ;
#261 = AXIS2_PLACEMENT_3D ( 'NONE', #229, #250, #45 ) ;
#262 = DIRECTION ( 'NONE',  ( 3.491481338843133355E-15, -1.224646799147353207E-16, 1.000000000000000000 ) ) ;
#263 = APPLICATION_PROTOCOL_DEFINITION ( 'international standard', 'config_control_design', 1994, #248 ) ;
#264 = AXIS2_PLACEMENT_3D ( 'NONE', #226, #130, #14 ) ;
#265 = CC_DESIGN_PERSON_AND_ORGANIZATION_ASSIGNMENT ( #217, #101, ( #40 ) ) ;
#266 = VERTEX_POINT ( 'NONE', #172 ) ;
#267 = CIRCLE ( 'NONE', #298, 1.200000000000001732 ) ;
#268 =( NAMED_UNIT ( * ) PLANE_ANGLE_UNIT ( ) SI_UNIT ( $, .RADIAN. ) );
#269 = PERSON ( 'UNSPECIFIED', 'UNSPECIFIED', 'UNSPECIFIED', ('UNSPECIFIED'), ('UNSPECIFIED'), ('UNSPECIFIED') ) ;
#270 = PLANE ( 'NONE',  #173 ) ;
#271 = DIRECTION ( 'NONE',  ( 3.491481338843133355E-15, -1.224646799147353207E-16, 1.000000000000000000 ) ) ;
#272 = DIRECTION ( 'NONE',  ( 3.491481338843133355E-15, -1.224646799147353207E-16, 1.000000000000000000 ) ) ;
#273 = LOCAL_TIME ( 7, 44, 52.00000000000000000, #288 ) ;
#274 = CIRCLE ( 'NONE', #264, 0.9249999999999988232 ) ;
#275 = DIRECTION ( 'NONE',  ( 4.275831445896958607E-31, 1.000000000000000000, 1.224646799147353454E-16 ) ) ;
#276 = ADVANCED_FACE ( 'NONE', ( #66, #157 ), #94, .F. ) ;
#277 = DIRECTION ( 'NONE',  ( -3.491481338843133355E-15, 1.224646799147353207E-16, -1.000000000000000000 ) ) ;
#278 = ORIENTED_EDGE ( 'NONE', *, *, #55, .F. ) ;
#279 = CALENDAR_DATE ( 2021, 30, 11 ) ;
#280 = AXIS2_PLACEMENT_3D ( 'NONE', #135, #164, #247 ) ;
#281 = CARTESIAN_POINT ( 'NONE',  ( 6.405924284287275164E-14, -2.246895775456749140E-15, 18.34729635533384595 ) ) ;
#282 = ORIENTED_EDGE ( 'NONE', *, *, #216, .F. ) ;
#283 = CALENDAR_DATE ( 2021, 30, 11 ) ;
#284 = EDGE_CURVE ( 'NONE', #108, #108, #198, .T. ) ;
#285 = DIRECTION ( 'NONE',  ( 0.0000000000000000000, 1.000000000000000000, 0.0000000000000000000 ) ) ;
#286 = DATE_AND_TIME ( #279, #171 ) ;
#287 = FACE_OUTER_BOUND ( 'NONE', #17, .T. ) ;
#288 = COORDINATED_UNIVERSAL_TIME_OFFSET ( 1, 0, .AHEAD. ) ;
#289 = CC_DESIGN_APPROVAL ( #151, ( #120 ) ) ;
#290 = APPROVAL_ROLE ( '' ) ;
#291 = LOCAL_TIME ( 7, 44, 52.00000000000000000, #163 ) ;
#292 = CARTESIAN_POINT ( 'NONE',  ( 2.886013015238225878E-14, 0.9249999999999978240, 8.265869798961826831 ) ) ;
#293 = EDGE_LOOP ( 'NONE', ( #282 ) ) ;
#294 = VERTEX_POINT ( 'NONE', #175 ) ;
#295 = CARTESIAN_POINT ( 'NONE',  ( 2.793185071074506684E-14, 8.087454628004051741E-33, 8.000000000000000000 ) ) ;
#296 = DIRECTION ( 'NONE',  ( 0.0000000000000000000, 1.000000000000000000, 0.0000000000000000000 ) ) ;
#297 = ORIENTED_EDGE ( 'NONE', *, *, #224, .F. ) ;
#298 = AXIS2_PLACEMENT_3D ( 'NONE', #61, #110, #154 ) ;
#299 = AXIS2_PLACEMENT_3D ( 'NONE', #178, #202, #275 ) ;
#300 = APPROVAL ( #253, 'UNSPECIFIED' ) ;
#301 = DIRECTION ( 'NONE',  ( 3.491481338843133355E-15, -1.224646799147353207E-16, 1.000000000000000000 ) ) ;
#302 = PERSON_AND_ORGANIZATION ( #269, #112 ) ;
#303 = FACE_OUTER_BOUND ( 'NONE', #254, .T. ) ;
ENDSEC;
END-ISO-10303-21;
